Song name
# A B C D E F G H I J K L M N O P Q R S T U V W X Y Z

White Stripes - Conquest tab

-------------------------------------------------------------------------------
			     CONQUEST - The White Stripes
-------------------------------------------------------------------------------
Tabbed by: Robert Q.
Email: childvagabond@gmail.com

Tuning: Standard (EADGBe)



Intro (with horn):

e|---3--------------------------------------------------|
B|--3---3643-43-----------------------------------------|
G|----------5--3----------------------------------------|
D|--------------5------6-6-5------6-6-5------6-6-5------|
A|-------------(5)-----6-6-5------6-6-5------6-6-5------|
E|-------------(3)-----4-4-3------4-4-3------4-4-3------|


Verse:

e|----------------------------------------------------------------------------|
B|----------------------------------------------------------------------------|
G|----------------------------------------------------------------------------|
D|--5--5--5-5-5--6--6--6-6-6------5--5--5-5-5--6--6--6-6-8-6-5--5--6-6-8-6-5--|
A|--5--5--5-5-5--6--6--6-6-6------5--5--5-5-5--6--6--6-6-8-6-5--5--6-6-8-6-5--|
E|--3--3--3-3-3--4--4--4-4-4-(2x)-3--3--3-3-3--4--4--4-4-6-4-3--3--4-4-6-4-3--|


Chorus:

e|-------------------------------------------------------------------|
B|-------------------------------------------------------------------|
G|-----------------------------------------0----------0----------0---|
D|--------0----------0----------0--------1---1------1---1------1---1-|
A|------1---1------1---1------1---1--3----------3----------3---------|
E|--3----------3----------3------------------------------------------|

e|----------------------------------|
B|----------------------------------|
G|-------------------------7-7-7-7--|
D|--7----------------------7-7-7-7--|
A|--7----------------------5-5-5-5--|
E|--5-------------------------------|


Bridge:

e|------------------------------------------------|
B|------------------------------------------------|
G|------------------------------------------------|
D|--5--5--5-5-5--6---------------5--5--6-6-8-6-5--|
A|--5--5--5-5-5--6---------------5--5--6-6-8-6-5--|
E|--3--3--3-3-3--4----------(3x)-3--3--4-4-6-4-3--|


Intro
verse (2x)
Chorus
Verse
Bridge (2x)
Verse (?)
Chorus
Verse


| /  slide up
| \  slide down
| h  hammer-on
| p  pull-off
| ~  vibrato
| +  harmonic
| x  Mute note
===============================================================================
Tap to rate this tab
# A B C D E F G H I J K L M N O P Q R S T U V W X Y Z