White Wizzard - Over The Top tab

-------------------------------------------------------------------------------
			     Over The Top- White Wizzard
-------------------------------------------------------------------------------
Tabbed by: Rockincognito
Email:

Tuning: Standard
Iím submitting this because the first tab of this song wasnít very accurate

Main Riff
(Note: The harmonic down there is done by plucking the string while your finger rests 
on the said fret)
e|-----------------------------------------------------------------------------|
B|-----------------------------------------------------------------------------|
G|-----------------------------------------------------------------------------|
D|-7/9-9-9-9----9---9---9-----9-7/9-10-10-10----10---10---10---10--------------|
A|-5/7-7-7-7-+7-7---7---7-----7-5/7-7--7--7--+7-7----7----7----7---------------|
E|-----------------------------------------------------------------------------|

e|-----------------------------------------------------------------------------|
B|-----------------------------------------------------------------------------|
G|-----------------------------------------------------------------------------|
D|-5/7-7-7-7----7---7---7-----7-10---9---12---11-----7-------------------------|
A|-3/5-5-5-5-+5-5---5---5-----5-8----7---10---9--------10-9--------------------|
E|----------------------------------------------------------10-----------------|

Riff A
e|------------------------------------------------------------------------------|
B|-13--13-12-10-13-12-10-13----13-12-10-13-12-10-13-----------------------------|
G|------------------------------------------------------------------------------|
D|------------------------------------------------------------------------------|
A|------------------------------------------------------------------------------|
E|------------------------------------------------------------------------------|
(Higher harmony)
e|---------------------------------------------------------------------------|
B|-17--17-15-13-17-15-13-17---17-15-13-17-15-13-17---------------------------|
G|---------------------------------------------------------------------------|
D|---------------------------------------------------------------------------|
A|---------------------------------------------------------------------------|
E|---------------------------------------------------------------------------|
(Rhythm Track)
e|----------------------------------------------------------------------------------|
B|----------------------------------------------------------------------------------|
G|-2--------------------------5----4---2----3---------------------------------------|
D|-2--------------------------5----4---2----3---------------------------------------|
A|-0--------------------------3----2---0----1---------------------------------------|
E|----------------------------------------------------------------------------------|

e|-------------------------------------------------------------------------------|
B|-------------------------------------------------------------------------------|
G|-5---4---2-----------------2-----------------------5---7-----------------------|
D|-5---4---2----5------------2----5------------------5---7-----------------------|
A|-3---2---0----5------------0----5------------------3---5-----------------------|
E|--------------3-----------------3----------------------------------------------|
Riff B
e|-----------------------------------------------------------------------------------|
B|-----------------------------------------------------------------------------------|
G|-9-9-9-9-------------------5---5---5---4---4---4-----------------------------------|
D|-9-9-9-9------------5-4----5---5---5---4---4---4-----------------------------------|
A|-7-7-7-7--------5h7-----5--3---3---3---2---2---2-----------------------------------|
E|--------------7--------------------------------------------------------------------|

e|-----------------------------------------------------------------------------------|
B|-----------------------------------------------------------------------------------|
G|-9-9-9-9-------------------5---5---5---5---5---5-----------------------------------|
D|-9-9-9-9------------5-4----5---5---5---5---5---5-----------------------------------|
A|-7-7-7-7--------5h7-----5--3---3---3---3---3---3-----------------------------------|
E|--------------7--------------------------------------------------------------------|


(harmony)
e|-----------------------------------------------------------------------------------|
B|-----------------------------------------------------------------------------------|
G|-----------------------------------------------------------------------------------|
D|--------------------9-7------------------------------------------------------------|
A|---------------9h10-----10---------------------------------------------------------|
E|------------10---------------------------------------------------------------------|

Riff C
e|---------------------------------------------------------------------------------|
B|---------------------------------------------------------------------------------|
G|---------------------------------------------------------------------------------|
D|-----------0-5-4------------0-5-4-0---5-4-2-0-2-4-0---5-4-2-0-2-4----------------|
A|-2---2-5h7--------2---2-5h7------------------------------------------------------|
E|-0---0------------0---0----------------------------------------------------------|

e|----------------------------------------------------------------------------------|
B|----------------------------------------------------------------------------------|
G|----------------------------------------------------------------------------------|
D|-----------0-5-4------------0-5-4-5------------7----------------------------------|
A|-2---2-5h7--------2---2-5h7-------3------------5----------------------------------|
E|-0---0------------0---0-----------------------------------------------------------|
(Harmony)
e|-----------------------------------------------------------------------------------|
B|-----------------------------------------------------------------------------------|
G|-------------4-2--------------4-2----4-2-0---0-2------4-2-0---0-2------------------|
D|-------5-4-5------------5-4-5-----4--------4------4---------4----------------------|
A|-----------------------------------------------------------------------------------|
E|-----------------------------------------------------------------------------------|

e|-----------------------------------------------------------------------------------|
B|-----------------------------------------------------------------------------------|
G|-------------4-2-------------4-2---------------------------------------------------|
D|-------5-4-5-----------5-4-5-------------------------------------------------------|
A|-----------------------------------------------------------------------------------|
E|-----------------------------------------------------------------------------------|
Riff D(Second solo riff)
e|----------------------------------------------------------------------------------|
B|----------------------------------------------------------------------------------|
G|----------------------------------------------------------------------------------|
D|----------------------------------------------------------------------------------|
A|-2-----5h7---5h7---5h7-5-7-8---2-----5h7---5h7---5h7-3----------------------------|
E|-0-0-0-----0-----0-------------0-0-0-----0-----0-------4~-------------------------|
     * *		*     *		  * *     *     *
e|---------------------------------------------------------------------------------|
B|---------------------------------------------------------------------------------|
G|--------------------------------------------5-4----------------------------------|
D|----------------------------------------6-7-----7-6------------------------------|
A|-2-----5h7---5h7---5h7-5-7-8---2----5-7-------------7-7~-------------------------|
E|-0-0-0-----0-----0-------------0-0-0---------------------------------------------|
     * *     *     *               * *


Riff E
e|---------------------------------------------------------------------------|
B|---------------------------------------------------------------------------|
G|---------------------------------------------------------------------------|X2
D|---------------------------------------------------------------------------|
A|-7-0-0-8-0-0-7-0-0-5-0-0-3-0-2-0-7-0-0-8-0-0-11-0-0-12-0-0-11-0-8----------|
E|---------------------------------------------------------------------------|

e|---------------------------------------------------------------------------|
B|---------------------------------------------------------------------------|
G|---------------------------------------------------------------------------|X2
D|--7-0-0-8-0-0-7-0-0-5-0-0-3-0-2-0-7-0-0-8-0-0-10-0-0-8-0-0-7-0-8-0---------|
A|---------------------------------------------------------------------------|
E|---------------------------------------------------------------------------|

Solo 1
e|-------------------------------------------------------------------------------|
B|---------------------------10--------------------------------------------------|
G|------------------------------12-11------9-10-10----5--7ó2~--------------------|
D|-9--9-------5/9-10-12~--------------12-----------------------------------------|
A|----11-------------------------------------------------------------------------|
E|-------------------------------------------------------------------------------|
(Tremolo picked, Listen to the song to get how long this tremolo part goes for)
e|-15-15-17-15-19-15-20-15-19-15-17-15-19-15-20-15-19-15-17---------------------|
B|------------------------------------------------------------------------------|
G|------------------------------------------------------------------------------|
D|------------------------------------------------------------------------------|
A|------------------------------------------------------------------------------|
E|------------------------------------------------------------------------------|

e|-19-20-17-19-15-17-14------------------------------------------------------|
B|-----------------------15-15/17--------------------------------------------|
G|---------------------------------------------------------------------------|
D|---------------------------------------------------------------------------|
A|---------------------------------------------------------------------------|
E|---------------------------------------------------------------------------|

Solo 3
e|-19-------------------20----20-20/22-20-19-19-17-15--19-17-15-20-19-17-----|
B|----17-17-17-17-17-17----17------------------------------------------------|
G|---------------------------------------------------------------------------|
D|---------------------------------------------------------------------------|
A|---------------------------------------------------------------------------|
E|---------------------------------------------------------------------------|

e|-15-17-17/19-12------------15-19-15--------------------------------------------|
B|------------------------17----------17-----------------------------------------|
G|---------------------16----------------16-16~---12-17---12-16-12-14-12-16-12---|
D|-------------------------------------------------------------------------------|
A|-------------------------------------------------------------------------------|
E|-------------------------------------------------------------------------------|

e|-5-0-0-7-0-0-8-0-0-10-0-0-8-0-10-0-12-0-0-14-0-0-15-0-0-17-0-0-19~------------|
B|(7)---(8)---(10)ó-(12)---(10)(12)-(13)---(15)---(17)---(19)---(20~)--- -- ----|
G|------------------------------------------------------------------------------|
D|------------------------------------------------------------------------------|
A|------------------------------------------------------------------------------|
E|------------------------------------------------------------------------------|
Sorry for not having the second solo, it was just so atonal and tricky. Please enjoy

************************************

| /   slide up
| \   slide down
| h   hammer-on
| p   pull-off
| ~   vibrato
| +   harmonic
| x   Mute note
| b   Bend
| pb  Pre-bend
| br  Bend release
| pbr Pre-bend release
| brb Bend release bend
| *   Mute
************************************
Tap to rate this tab
 
# A B C D E F G H I J K L M N O P Q R S T U V W X Y Z