White Wizzard - High Speed Gto tab

-------------------------------------------------------------------------------
			     high speed gto - white wizzard
-------------------------------------------------------------------------------
Tabbed by: Justin Walker ( jacksonking27 )
Email: justinwalker39@msn.com
ive been asked to tab this for almost a year now so i finally got around to it . its not 
perfect since i learned this by ear but just listen to it and you should be able to 
pick up the rhythm,

Tuning:
intro
e|--------------------------------------------------------------------------|
B|-10-10-10p9----10-10-10p9----10-10-10p9----10-10-10p9-----10-10-10p9------|
G|-----------11------------11------------11------------11---------------11--|
D|--------------------------------------------------------------------------|
A|--------------------------------------------------------------------------|
E|--------------------------------------------------------------------------|

e|-9------------------------------------------------------------------------|
B|--10--------------9h10p9-----9--------------------------------------------|
G|----11-9h11--9h11---------11----------------------------------------------|
D|--------------------------------------------------------------------------|
A|--------------------------------------------------------------------------|
E|--------------------------------------------------------------------------|

e|--------------------------------------------------------------------------|
B|-10-10-10p9----10-10-10p9----10-10-10p9----10-10-10p9-----10-10-10p9------|
G|------------11------------11------------11------------11--------------11--|
D|--------------------------------------------------------------------------|
A|--------------------------------------------------------------------------|
E|--------------------------------------------------------------------------|

e|--------------------------------------------------------------------------|
B|--------------------------------------------------------------------------|
G|--------------------------------------------------------------------------|
D|------------------------------2-2-2--2---4-4-4-4--------------------------|
A|-7-9-10-12-10-9-10 9 7ph------0-0-0--0---2-2-2-2--------------------------|
E|--------------------------------------------------------------------------|

verse
e|--------------------------------------------------------------------------|
B|--------------------------------------------------------------------------|
G|--------------------------------------------------------------------------|
D|--------------------------------------------------------9-----------------|
A|-9-9-9p7----9-9-9p7---9-9-9p7----9-9-9p7----9-9-9p7----7---777-7--999--9--|
E|----------9---------9----------9---------9----------9--0---555-5--777--7--|

prechorus
e|--------------------------------------------------------------------------|
B|--------------------------------------------------------------------------|
G|--------------------------------------------------------------------------|
D|--77777-66666--44444-22222-00000-22222-44444------------------------------|
A|--------------------------------------------------------------------------|
E|----------------------------------------------0-4-5-0-5-4-----------------|

chorus
e|--------------------------------------------------------------------------|
B|--------------------------------------------------------------------------|
G|--------------------------------------------------------------------------|
D|------------------------------4-4-4-4-4--67-7-7-7-7-7-7-------------------|
A|-4-4-4-4-4-4-------2-2-2-2-2--2-2-2-2-2--45-5-5-5-4-4-4-------------------|
E|-2-2-2-2-2-2--4-5--0-0-0-0-0----------------------------------------------|

after breakdown
e|--------------------------------------------------------------------------|
B|--------------------------------------------------------------------------|
G|--------------------------------------------------------------------------|
D|-11---14----13---9---11---------------------------------------------------|
A|-9----12----11---7---9----------------------------------------------------|
E|--------------------------------------------------------------------------|

buildup : strum along to rhythm
e|----------------------------------------------------------------------------|
B|----------------------------------------------------------------------------|
G|----------------------------------------------------------------------------|
D|--14----18---16----13/14----------------------------------------------------|
A|--12----16---14----11/12----------------------------------------------------|
E|----------------------------------------------------------------------------|

solo rhythm / outro
e|--------------------------------------------------------------------------|
B|--------------------------------------------------------------------------|
G|--------------------------------------------------------------------------|
D|--------------------------------------------------------------------------|
A|--4-----7------6--24------------------------------------------------------|
E|--2-----5------4--02------------------------------------------------------|
Tap to rate this tab
 
# A B C D E F G H I J K L M N O P Q R S T U V W X Y Z