Song name
# A B C D E F G H I J K L M N O P Q R S T U V W X Y Z

White Wizzard - High Speed Gto tab

High Speed GTO-WHITE WIZZARD

Guitar Tuning: Standard (E A D G B E)

Note: This is my interpretation of this masterpiece.

Key: F# Minor (F# C# and G#)

I have also taken the liberty of providing the note lengths:
W-Whole note
H-Half note
E-Eighth note
S-Sixteenth note
T-Thirty-second note
a=Grace note
Note with a dote is represented a another half of its value
(e.g.) E.=Dotted Eight note or an Eighth note tied to a sixteenth note.
A Note above no fret number represents a rest.
And a period(dot) above a note length is a staccato, or played short.
Note in parenthesis are tied notes.

Q=170
Intro                                       _____________________________
                                           | 1
                       |-3-|         |-3-|           |-3-|         |-3-|
  W     W      E.  S   E E E E.  S   E E E   E.  S   E E E E.  S   E E E
|-----|-----|------------------------------|-----------------------------|
|-----|-----|o-10--10-10-9-7-10--10-10-9-7-|-10--10-10-9-7-10--10-10-9-7-|
|-----|-----|--11--11-11-9-7-11--11-11-9-7-|-11--11-11-9-7-11--11-11-9-7-|
|-----|-----|------------------------------|-----------------------------|
|-----|-----|o-----------------------------|-----------------------------|
|-----|-----|------------------------------|-----------------------------|
|            (Two Guitar harmony arranged for one Guitar) 
|
|              W                              W
|-----|-----|------------------------------|-----------------------------|
|-----|-----|o-----------------------------|-----------------------------|
|-----|-----|------------------------------|-----------------------------|
|-----|-----|--4---------------------------|-(4)-------------------------|
|-----|-----|o-4---------------------------|-(4)-------------------------|
|-----|-----|--2---------------------------|-(2)-------------------------|
_____________________________________________  _____________________________
                                              | 2  
      |--3--|         |-3-|  |--3--|            |--3--| |--3--| |-3-| |-3-|
  Q   E   E E H       E E E  E  E  E  a   H     E  E  E E  E  E E E E E E E 
|-10--10--9-7-------|--------7----------------|-----------------------------|
|-12--12-10-9-10----|-7-9-10-9--10-7-10b(12)-o|-9--7------------------------|
|-------------11----|-7-9-11----11-7-11b(13)--|-9--7--9-7--6----------------|
|-------------------|-------------------------|------11-9--7--9-7-6---------|
|-------------------|------------------------o|--------------11-9-7-9-7-9-7-|
|-------------------|-------------------------|---------------------9-7-9-7-|
|
|                    |-3-|      |-3-|
| W                  E E E Q    E E E Q          W
|------------------|--------------------------|-----------------------------|
|------------------|-------------------------o|-----------------------------|
|------------------|--------------------------|-----------------------------|
|-2----------------|-7-7-7-7------9-9-9-9-----|-(4)-------------------------|
|-2----------------|-7-7-7-7------9-9-9-9----o|-(4)-------------------------|
|-0----------------|-5-5-5-5------7-7-7-7-----|-(2)-------------------------|
________________________________________________

                            |-3-|      |-3-|
  W                         E E E Q    E E E Q
|-------------------------|---------------------||
|-------------------------|---------------------||
|-------------------------|---------------------||
|-------------------------|-7-7-7-7----9-9-9-9--||
|-7-----------------------|-7-7-7-7----9-9-9-9--||
|-7-----------------------|-5-5-5-5----7-7-7-7--||
|
|                           |-3-|      |-3-|
| W                         E E E Q    E E E Q
|-------------------------|---------------------||
|-------------------------|---------------------||
|-------------------------|---------------------||
|-2-----------------------|-7-7-7-7----9-9-9-9--||
|-2-----------------------|-7-7-7-7----9-9-9-9--||
|-0-----------------------|-5-5-5-5----7-7-7-7--||

Verse
        |-3-|      |-3-|        |-3-|      |-3-|            |-3-|      |-3-|
   E. S E E E E. S E E E   E. S E E E E. S E E E   W        E E E Q    E E E Q (x3)
|------------------------|-----------------------|--------|---------------------|
|o-----------------------|-----------------------|--------|--------------------o|
|------------------------|-----------------------|-9------|---------------------|
|------------------------|-----------------------|-9------|-7-7-7-7----9-9-9-9--|
|o-9--9-9-7-5-9--9-9-7-5-|-9--9-9-7-5-9--9-9-7-5-|-7------|-7-7-7-7----9-9-9-9-o|
|------------------------|-----------------------|-0------|-5-5-5-5----7-7-7-7--|
|
|       |-3-|      |-3-|        |-3-|      |-3-|            |-3-|      |-3-|
|  E. S E E E E. S E E E   E. S E E E E. S E E E   W        E E E Q    E E E Q (x3)
|------------------------|-----------------------|--------|---------------------|
|o-----------------------|-----------------------|--------|--------------------o|
|------------------------|-----------------------|-9------|---------------------|
|------------------------|-----------------------|-9------|-7-7-7-7----9-9-9-9--|
|o-9--9-9-7-5-9--9-9-7-5-|-9--9-9-7-5-9--9-9-7-5-|-7------|-7-7-7-7----9-9-9-9-o|
|------------------------|-----------------------|-0------|-5-5-5-5----7-7-7-7--|

   |--3--|  |--3--|  |--3--|  |--3--|   |-3-| |-3-| |-3-| |-3-|
   E  E  E  E  E  E  E  E  E  E  E  E   E E E E E E E E E E E E 
|-------------------------------------|-------------------------|
|-------------------------------------|-------------------------|
|-------------------------------------|-------------------------|
|-------------------------------------|-------------------------|
|-12-12-12-12-12-12-11-11-11-11-11-11-|-9-9-9-9-9-9-7-7-7-7-7-7-|
|-------------------------------------|-------------------------|

  |-3-| |-3-| |-3-| |-3-|   |-3-| |-3-| |-3-| |-3-|   |-3-| |-3-| |-3-| |-3-|
  E E E E E E E E E E E E   E E E E E E E E E E E E   E E E E E E E E E E E E 
|-------------------------|-------------------------|-------------------------|
|-------------------------|-------------------------|-------------------------|
|-------------------------|-------------------------|-------------------------|
|-------------------------|-------------------------|-------------------------|
|-5-5-5-5-5-5-5-5-5-5-5-5-|-7-7-7-7-7-7-7-7-7-7-7-7-|-9-9-9-9-9-9-9-9-9-9-9-9-|
|-------------------------|-------------------------|-------------------------|

                  Chorus
  E E E E E E E E     Q   E E E E E E    Q   E E E E E E   Q  E E E E E E
|-----------------||------------------|------------------|----------------|
|-----------------||o-----------------|------------------|----------------|
|-----------------||------------------|------------------|----------------|
|---------------4-||-(4)--4-4-------2-|-(2)--2-2---------|-4--4-4-4-5---7-|
|---------------4-||o(4)--4-4-------2-|-(2)--2-2---------|-2--2-2-2-3---5-|
|-7-5-4-2-4-5-4-2-||-(2)--2-2-2-4-2-0-|-(0)--0-0-0-2-4-0-|----------------|
|
| E E E E E E E E     Q   E E E E E E    Q   E E E E E E   Q  E E E E E E
|-----------------||------------------|------------------|----------------|
|-----------------||o-----------------|------------------|----------------|
|-----------------||------------------|------------------|----------------|
|---------------4-||-(4)--4-4-------2-|-(2)--2-2---------|-4--4-4-4-5---7-|
|---------------4-||o(4)--4-4-------2-|-(2)--2-2---------|-2--2-2-2-3---5-|
|-7-5-4-2-4-5-4-2-||-(2)--2-2-2-4-2-0-|-(0)--0-0-0-2-4-0-|----------------|

   E  E E E E E E E   Q  E E E E E E    Q   E E E E E E   Q  E Q  E Q
|-------------------|----------------|------------------|-------------|
|-------------------|----------------|------------------|-------------|
|-------------------|----------------|------------------|-------------|
|-(7)-7-----7-5-----|-4--4-4-------2-|-(2)--2-2-------7-|-7--5-5------|
|-(5)-5-5-5-5-3-----|-4--4-4-------2-|-(2)--2-2-------5-|-5--3-3--2-2-|
|---------------5-3-|-2--2-2-2-4-2-0-|-(0)--0-0-2-4-2---|-------------|
|
|  E  E E E E E E E   Q  E E E E E E    Q   E E E E E E   Q  E Q  E Q
|-------------------|----------------|------------------|-------------|
|-------------------|----------------|------------------|-------------|
|-------------------|----------------|------------------|-------------|
|-(7)-7-----7-5-----|-4--4-4-------2-|-(2)--2-2-------7-|-7--5-5------|
|-(5)-5-5-5-5-3-----|-4--4-4-------2-|-(2)--2-2-------5-|-5--3-3--2-2-|
|---------------5-3-|-2--2-2-2-4-2-0-|-(0)--0-0-2-4-2---|-------------|

 ___________________  ________
| 1                  | 2
   E  E E E E E E E     W        H.  E
|--------------------|--------|--------||
|-------------------o|--------|--------||
|--------------------|--------|--------||
|-(4)-------------4--|-(4)----|-(4)----||
|-(2)-------------4-o|-(2)----|-(2)----||
|-----5-4-2-4-5-4-2--|--------|--------||
|
|  E  E E E E E E E     W        H.  E
|--------------------|--------|--------||
|-------------------o|--------|--------||
|--------------------|--------|--------||
|-(4)-------------4--|-(4)----|-(4)----||
|-(2)-------------4-o|-(2)----|-(2)----||
|-----5-4-2-4-5-4-2--|--------|--------||

(Intro)                         ______________________________
                               | 1
           |-3-|         |-3-|           |-3-|         |-3-|
   E.  S   E E E E.  S   E E E   E.  S   E E E E.  S   E E E
|------------------------------|-----------------------------|
|o-10--10-10-9-7-10--10-10-9-7-|-10--10-10-9-7-10--10-10-9-7-|
|--11--11-11-9-7-11--11-11-9-7-|-11--11-11-9-7-11--11-11-9-7-|
|------------------------------|-----------------------------|
|o-----------------------------|-----------------------------|
|------------------------------|-----------------------------|
|(Two Guitar harmony arranged for one Guitar) 
|
|  W                              W
|------------------------------|-----------------------------|
|o-----------------------------|-----------------------------|
|------------------------------|-----------------------------|
|--4---------------------------|-(4)-------------------------|
|o-4---------------------------|-(4)-------------------------|
|--2---------------------------|-(2)-------------------------|
_____________________________________________  _____________________________
                                              | 2  
      |--3--|         |-3-|  |--3--|            |--3--| |--3--| |-3-| |-3-|
  Q   E   E E H       E E E  E  E  E  a   H     E  E  E E  E  E E E E E E E 
|-10--10--9-7-------|--------7----------------|-----------------------------|
|-12--12-10-9-10----|-7-9-10-9--10-7-10b(12)-o|-9--7------------------------|
|-------------11----|-7-9-11----11-7-11b(13)--|-9--7--9-7--6----------------|
|-------------------|-------------------------|------11-9--7--9-7-6---------|
|-------------------|------------------------o|--------------11-9-7-9-7-9-7-|
|-------------------|-------------------------|---------------------9-7-9-7-|
|
|                    |-3-|      |-3-|
| W                  E E E Q    E E E Q          W
|------------------|--------------------------|-----------------------------|
|------------------|-------------------------o|-----------------------------|
|------------------|--------------------------|-----------------------------|
|-2----------------|-7-7-7-7------9-9-9-9-----|-(4)-------------------------|
|-2----------------|-7-7-7-7------9-9-9-9----o|-(4)-------------------------|
|-0----------------|-5-5-5-5------7-7-7-7-----|-(2)-------------------------|
________________________________________________

                            |-3-|      |-3-|
  W                         E E E Q    E E E Q
|-------------------------|---------------------||
|-------------------------|---------------------||
|-------------------------|---------------------||
|-------------------------|-7-7-7-7----9-9-9-9--||
|-7-----------------------|-7-7-7-7----9-9-9-9--||
|-7-----------------------|-5-5-5-5----7-7-7-7--||
|
|                           |-3-|      |-3-|
| W                         E E E Q    E E E Q
|-------------------------|---------------------||
|-------------------------|---------------------||
|-------------------------|---------------------||
|-2-----------------------|-7-7-7-7----9-9-9-9--||
|-2-----------------------|-7-7-7-7----9-9-9-9--||
|-0-----------------------|-5-5-5-5----7-7-7-7--||

Verse
        |-3-|      |-3-|        |-3-|      |-3-|            |-3-|      |-3-|
   E. S E E E E. S E E E   E. S E E E E. S E E E   W        E E E Q    E E E Q (x3)
|------------------------|-----------------------|--------|---------------------|
|o-----------------------|-----------------------|--------|--------------------o|
|------------------------|-----------------------|-9------|---------------------|
|------------------------|-----------------------|-9------|-7-7-7-7----9-9-9-9--|
|o-9--9-9-7-5-9--9-9-7-5-|-9--9-9-7-5-9--9-9-7-5-|-7------|-7-7-7-7----9-9-9-9-o|
|------------------------|-----------------------|-0------|-5-5-5-5----7-7-7-7--|
|
|       |-3-|      |-3-|        |-3-|      |-3-|            |-3-|      |-3-|
|  E. S E E E E. S E E E   E. S E E E E. S E E E   W        E E E Q    E E E Q (x3)
|------------------------|-----------------------|--------|---------------------|
|o-----------------------|-----------------------|--------|--------------------o|
|------------------------|-----------------------|-9------|---------------------|
|------------------------|-----------------------|-9------|-7-7-7-7----9-9-9-9--|
|o-9--9-9-7-5-9--9-9-7-5-|-9--9-9-7-5-9--9-9-7-5-|-7------|-7-7-7-7----9-9-9-9-o|
|------------------------|-----------------------|-0------|-5-5-5-5----7-7-7-7--|

   |--3--|  |--3--|  |--3--|  |--3--|   |-3-| |-3-| |-3-| |-3-|
   E  E  E  E  E  E  E  E  E  E  E  E   E E E E E E E E E E E E 
|-------------------------------------|-------------------------|
|-------------------------------------|-------------------------|
|-------------------------------------|-------------------------|
|-------------------------------------|-------------------------|
|-12-12-12-12-12-12-11-11-11-11-11-11-|-9-9-9-9-9-9-7-7-7-7-7-7-|
|-------------------------------------|-------------------------|

  |-3-| |-3-| |-3-| |-3-|   |-3-| |-3-| |-3-| |-3-|   |-3-| |-3-| |-3-| |-3-|
  E E E E E E E E E E E E   E E E E E E E E E E E E   E E E E E E E E E E E E 
|-------------------------|-------------------------|-------------------------|
|-------------------------|-------------------------|-------------------------|
|-------------------------|-------------------------|-------------------------|
|-------------------------|-------------------------|-------------------------|
|-5-5-5-5-5-5-5-5-5-5-5-5-|-7-7-7-7-7-7-7-7-7-7-7-7-|-9-9-9-9-9-9-9-9-9-9-9-9-|
|-------------------------|-------------------------|-------------------------|

                  Chorus
  E E E E E E E E     Q   E E E E E E    Q   E E E E E E   Q  E E E E E E
|-----------------||------------------|------------------|----------------|
|-----------------||o-----------------|------------------|----------------|
|-----------------||------------------|------------------|----------------|
|---------------4-||-(4)--4-4-------2-|-(2)--2-2---------|-4--4-4-4-5---7-|
|---------------4-||o(4)--4-4-------2-|-(2)--2-2---------|-2--2-2-2-3---5-|
|-7-5-4-2-4-5-4-2-||-(2)--2-2-2-4-2-0-|-(0)--0-0-0-2-4-0-|----------------|
|
| E E E E E E E E     Q   E E E E E E    Q   E E E E E E   Q  E E E E E E
|-----------------||------------------|------------------|----------------|
|-----------------||o-----------------|------------------|----------------|
|-----------------||------------------|------------------|----------------|
|---------------4-||-(4)--4-4-------2-|-(2)--2-2---------|-4--4-4-4-5---7-|
|---------------4-||o(4)--4-4-------2-|-(2)--2-2---------|-2--2-2-2-3---5-|
|-7-5-4-2-4-5-4-2-||-(2)--2-2-2-4-2-0-|-(0)--0-0-0-2-4-0-|----------------|

   E  E E E E E E E   Q  E E E E E E    Q   E E E E E E   Q  E Q  E Q
|-------------------|----------------|------------------|-------------|
|-------------------|----------------|------------------|-------------|
|-------------------|----------------|------------------|-------------|
|-(7)-7-----7-5-----|-4--4-4-------2-|-(2)--2-2-------7-|-7--5-5------|
|-(5)-5-5-5-5-3-----|-4--4-4-------2-|-(2)--2-2-------5-|-5--3-3--2-2-|
|---------------5-3-|-2--2-2-2-4-2-0-|-(0)--0-0-2-4-2---|-------------|
|
|  E  E E E E E E E   Q  E E E E E E    Q   E E E E E E   Q  E Q  E Q
|-------------------|----------------|------------------|-------------|
|-------------------|----------------|------------------|-------------|
|-------------------|----------------|------------------|-------------|
|-(7)-7-----7-5-----|-4--4-4-------2-|-(2)--2-2-------7-|-7--5-5------|
|-(5)-5-5-5-5-3-----|-4--4-4-------2-|-(2)--2-2-------5-|-5--3-3--2-2-|
|---------------5-3-|-2--2-2-2-4-2-0-|-(0)--0-0-2-4-2---|-------------|
 ___________________  ________
| 1                  | 2
   E  E E E E E E E     W        W        W         W         W        W
|--------------------|--------|--------|---------|---------|--------|---------|
|-------------------o|--------|--------|---------|---------|--------|---------|
|--------------------|--------|--------|---------|---------|--------|---------|
|-(4)-------------4--|-(4)----|-(4)----|-(4)-----|-(4)-----|-(4)----|-(4)-----|
|-(2)-------------4-o|-(2)----|-(2)----|-(2)-----|-(2)-----|-(2)----|-(2)-----|
|-----5-4-2-4-5-4-2--|--------|--------|---------|---------|--------|---------|
|
|  E  E E E E E E E     W        W       W         W         W        W 
|--------------------|--------|--------|---------|---------|--------|---------|
|-------------------o|--------|--------|---------|---------|--------|---------|
|--------------------|--------|--------|---------|---------|--------|---------|
|-(4)-------------4--|-(4)----|-(4)----|-(4)-----|-(4)-----|-(4)----|-(4)-----|
|-(2)-------------4-o|-(2)----|-(2)----|-(2)-----|-(2)-----|-(2)----|-(2)-----|
|-----5-4-2-4-5-4-2--|--------|--------|---------|---------|--------|---------|

Interlude                  ________________________  _________________________
                          | 1 2 3                   | 4
  W                         W                         H.                 E E
|-------------------------|-------------------------|-------------------------|
|o------------------------|------------------------o|-------------------------|
|-------------------------|-------------------------|--------------------9/11-|
|-------------------------|-------------------------|-------------------------|
|o------------------------|------------------------o|--------------------7/9--|
|-------------------------|-------------------------|-------------------------|
                             _______________________  ________________
                            | 1 2 3                  | 4
                                                            |--3--|  |--3--|  |--3--|
    W          H    Q  E E     W         H.     E E     Q   E  E  E  E  E  E  E  E  E 
|------------|--------------|----------|-------------|---------------------------------|
|o-----------|--------------|----------|------------o|---------------------------------|
|--(11)------|-14---12-9/11-|-(11)-----|-(11)---9/11-|-(11)-11-11-11-11-11-11-11-11-11-|
|------------|--------------|----------|-------------|---------------------------------|
|o-(9)-------|-12---10-7/9--|-(9)------|-(9)----7/9-o|-(9)--9--9--9--9--9--9--9--9--9--|
|------------|--------------|----------|-------------|---------------------------------|

                           Bridge                          _________________________
  |--3--|  |--3--|  .                                     | 1 2 3
  E  E  E  E  E  E  Q  Q      E.  S  E.  S  E.  S  E.  S    E.  S  E.  S  Q   E. S
|-------------------------||------------------------------|-------------------------|
|-------------------------||o-----------------------------|-------------------------|
|-11-11-11-11-11-11-11----||--14--14-14--14-14--14-14--14-|-17--17-17--17-16--13-14-|
|-------------------------||------------------------------|-------------------------|
|-9--9--9--9--9--9--9-----||o-12--12-12--12-12--12-12--12-|-15--15-15--15-14--11-12-|
|-------------------------||------------------------------|-------------------------|
 _______________________________________________________  ________________________
                                                         | 4
  E.  S  E.  S  E.  S  E.  S    E.  S  E.  S  Q   E. S     E.  S  E.  S  Q   Q
|-----------------------------|--------------------------|-----------------------|
|-----------------------------|-------------------------o|-----------------------|
|-14--14-14--14-14--14-14--14-|-14--14-14--14-14--13-14--|-14--14-14--14-16--13--|
|-----------------------------|--------------------------|-----------------------|
|-12--12-12--12-12--12-12--12-|-12--12-12--12-12--11-12-o|-12--12-12--12-14--11--|
|-----------------------------|--------------------------|-----------------------|
 __________________________________________________________

                                |--3--|  |--3--|
  E.  S  E.  S  E.  S  E.  S    E  E  E  E  E  E  Q    E E
|-----------------------------|----------------------------------||
|-----------------------------|----------------------------------||
|-11--11-11--11-11--11-11--11-|-11-11-11-11-11-11-11-------2h4---||
|-11--11-11--11-11--11-11--11-|-11-11-11-11-11-11-11-------------||
|-9---9--9---9--9---9--9---9--|-9--9--9--9--9--9--9--------------||
|-----------------------------|----------------------------------||
|
|                               |--3--|  |--3--|  |--3--|
| E.  S  E.  S  E.  S  E.  S    E  E  E  E  E  E  E  E  E  E  E
|-----------------------------|----------------------------------||
|-----------------------------|----------------------------------||
|-11--11-11--11-11--11-11--11-|-11-11-11-11-11-11-11-11-11-11-11-||
|-11--11-11--11-11--11-11--11-|-11-11-11-11-11-11-11-11-11-11-11-||
|-9---9--9---9--9---9--9---9--|-9--9--9--9--9--9--9--9--9--9--9--||
|-----------------------------|----------------------------------||

Guitar Solo
       |-3-|      |--3--| |-3-| |-3-| |-3-|          |-3-| |-3-| |-3-| |-3-|
  H.   E E E   a  E  E  E E E E E E E E E E   W      E E E E E E E E E E E E
|------------|------------------------------|------|-------------------------|
|------------|------------------------------|------|-------2p0---3p0---5p0---|
|-2----2h4-4-|-4b(5)-5--5-4p2p1-------------|------|-2p1---------------------|
|------------|------------------4p2p0-------|------|-----4-----4-----4-----4-|
|------------|------------------------2p0---|------|-------------------------|
|------------|----------------------------4-|-2----|-------------------------|
|
| W            H                Q       E E   W       H.               E   E
|------------|------------------------------|------|-------------------------|
|------------|------------------------------|------|-------------------------|
|------------|------------------------------|------|-------------------------|
|-4----------|-7----------------6-------2-4-|-(4)--|-(4)---------------(4)-4-|
|-4----------|-7----------------6-------2-4-|-(4)--|-(4)---------------(4)-4-|
|-2----------|-5----------------4-------0-2-|-(2)--|-(2)---------------(2)-2-|

              |--3--|               |-3-| |-3-| |-3-| |-3-|   |-3-| |-3-|
  H    H      E  E  E E E Q  Q      E E E E E E E E E E E E   E E E E E E Q  Q
|-----------|---------------------|-7-4---------9-5---------|-------------------|
|-5b--(7)---|-5b(7)r5p2-----------|-----5-----------7-------|-7-5---------------|
|-----------|-----------4-2-------|-------4-----------6-----|-----6-4-----------|
|-----------|---------------------|---------6-----------7---|---------7-6-4-----|
|-----------|---------------------|-----------7-----------9-|-------------------|
|-----------|---------------------|-------------------------|-------------------|
|
| W           H       Q     E  E     W                         H.         E   E
|-----------|---------------------|-------------------------|-------------------|
|-----------|---------------------|-------------------------|-------------------|
|-----------|---------------------|-------------------------|-------------------|
|-(4)-------|-7-------6-----2--4--|-(4)---------------------|-(4)---------(4)-4-|
|-(4)-------|-7-------6-----2--4--|-(4)---------------------|-(4)---------(4)-4-|
|-(2)-------|-5-------4-----0--2--|-(2)---------------------|-(2)---------(2)-2-|

            |--3--|            |--3--|        |-------3-------|
  a   Q     E  E  E  a   Q     E  E  E    a   Q   a   Q   a   Q   H
|---------------------------------------|-17b(19)-17b(19)-17b(19)-17---------|
|-17b(19)-(19)-17p14-17b(19)-(19)-17p14-|------------------------------------|
|---------------------------------------|------------------------------------|
|---------------------------------------|------------------------------------|
|---------------------------------------|------------------------------------|
|---------------------------------------|------------------------------------|
|
|  W                                      H                       Q    E  E
|---------------------------------------|------------------------------------|
|---------------------------------------|------------------------------------|
|---------------------------------------|------------------------------------|
|-(4)-----------------------------------|-7-----------------------6----2--4--|
|-(4)-----------------------------------|-7-----------------------6----2--4--|
|-(2)-----------------------------------|-5-----------------------4----0--2--|
 
  |--3--|  |--3--|  |--3--|  |--3--| |--3--| |-3-|        |-3-|  |-3-|
  E  E  E  E  E  E  E  E  E  E E  E   E E  E E E E H      E E E  E E E aQ (Q)   aQ (Q) 
|-14h17p14-12h16p12-10h14p10-9h12p9-|-7h10p7-5h9p5-4----|--------7------7--------7-------|
|-----------------------------------|-------------------|-7-9-10--10-7-10b(12)--10b(12)--|
|-----------------------------------|-------------------|--------------------------------|
|-----------------------------------|-------------------|--------------------------------|
|-----------------------------------|-------------------|--------------------------------|
|-----------------------------------|-------------------|--------------------------------|
|
|  W                                   H.          E  E    W
|-----------------------------------|-------------------|--------------------------------|
|-----------------------------------|-------------------|--------------------------------|
|-----------------------------------|-------------------|--------------------------------|
|-(4)-------------------------------|-(4)---------(4)-4-|-(4)----------------------------|
|-(4)-------------------------------|-(4)---------(4)-4-|-(4)----------------------------|
|-(2)-------------------------------|-(2)---------(2)-2-|-(2)----------------------------|

  |--3--| |-3-|
  E  E  E E E E aQ (Q)   aQ (Q)     aH (H)    aH (H)      aQ (Q)    E   aE (E)   H
|---------9------9--------9-------|-10--------10--------|-14--------17--14-------------||
|-9-10-12--12-9-12b(14)--12b(14)--|-13b(15)---13b(15)---|-17b(19)--(19)-17b(19)-(19)---||
|---------------------------------|---------------------|------------------------------||
|---------------------------------|---------------------|------------------------------||
|---------------------------------|---------------------|------------------------------||
|---------------------------------|---------------------|------------------------------||
|
| H              Q        E   E      W                     W
|---------------------------------|---------------------|------------------------------||
|---------------------------------|---------------------|------------------------------||
|---------------------------------|---------------------|------------------------------||
|-7--------------6--------2---4---|-(4)-----------------|-(4)--------------------------||
|-7--------------6--------2---4---|-(4)-----------------|-(4)--------------------------||
|-5--------------4--------0---2---|-(2)-----------------|-(2)--------------------------||

Outro(lick contributions) 
                                                                         |-3-|
 W            H                Q       E E    Q   a  T   S.  E   H       E E E H     Q
|------------|------------------------------|--------------------------|-----------------|
|------------|------------------------------|--------------------------|-----------------|
|------------|------------------------------|-----4b(6)r(4)-(4)-(4)----|-2h4p2-(2)-------|
|-4----------|-7----------------6-------2-4-|-(4)----------------------|-----------------|
|-4----------|-7----------------6-------2-4-|-(4)----------------------|-----------------|
|-2----------|-5----------------4-------0-2-|-(2)----------------------|-----------------|
|
| W            H                Q       E E   W                           W        
|------------|------------------------------|--------------------------|-----------------|
|------------|------------------------------|--------------------------|-----------------|
|------------|------------------------------|--------------------------|-----------------|
|-4----------|-7----------------6-------2-4-|-(4)----------------------|-(4)-------------|
|-4----------|-7----------------6-------2-4-|-(4)----------------------|-(4)-------------|
|-2----------|-5----------------4-------0-2-|-(2)----------------------|-(2)-------------|

  W            H                Q       E E   W                        W        
|------------|------------------------------|-----------------------|--------------------|
|------------|------------------------------|-----------------------|--------------------|
|------------|------------------------------|-----------------------|--------------------|
|-4----------|-7----------------6-------2-4-|-(4)-------------------|-(4)----------------|
|-4----------|-7----------------6-------2-4-|-(4)-------------------|-(4)----------------|
|-2----------|-5----------------4-------0-2-|-(2)-------------------|-(2)----------------|
|
| W            H                Q       E E   W                        W        
|------------|------------------------------|-----------------------|--------------------|
|------------|------------------------------|-----------------------|--------------------|
|------------|------------------------------|-----------------------|--------------------|
|-4----------|-7----------------6-------2-4-|-(4)-------------------|-(4)----------------|
|-4----------|-7----------------6-------2-4-|-(4)-------------------|-(4)----------------|
|-2----------|-5----------------4-------0-2-|-(2)-------------------|-(2)----------------|
|
|                                                 (Bass Lick arranged for Guitar)
|                                                   |--3--| |--3--|   |-3-| |-3-|
| W            W                              H     E  E  E E  E  E   E E E E E E E. S Q
|------------|------------------------------|-----------------------|--------------------|
|------------|------------------------------|-----------------------|--------------------|
|------------|------------------------------|-----------------------|--------------------|
|------------|------------------------------|-----------------------|--------------------|
|------------|------------------------------|-----------------------|--------------------|
|------------|------------------------------|-------14-10-12-9-10-7-|-9-5-7-4-5-4-2--5-2-|

                                                 (Drum Lick)
  W            H                Q       E E   W                        W        
|------------|------------------------------|-----------------------|--------------------|
|------------|------------------------------|-----------------------|--------------------|
|------------|------------------------------|-----------------------|--------------------|
|-4----------|-7----------------6-------2-4-|-(4)-------------------|-(4)----------------|
|-4----------|-7----------------6-------2-4-|-(4)-------------------|-(4)----------------|
|-2----------|-5----------------4-------0-2-|-(2)-------------------|-(2)----------------|
|
| W            H                Q       E E   W                        W        
|------------|------------------------------|-----------------------|--------------------|
|------------|------------------------------|-----------------------|--------------------|
|------------|------------------------------|-----------------------|--------------------|
|-4----------|-7----------------6-------2-4-|-(4)-------------------|-(4)----------------|
|-4----------|-7----------------6-------2-4-|-(4)-------------------|-(4)----------------|
|-2----------|-5----------------4-------0-2-|-(2)-------------------|-(2)----------------|

                                                                  (Vocal Lick)
   W                         H                       Q    E  E    W        W
|--------------------------|------------------------------------|--------|---------*||
|--------------------------|------------------------------------|--------|---------*||
|--------------------------|------------------------------------|--------|---------*||
|-(4)----------------------|-7-----------------------6----2--4--|--------|---------*||
|-(4)----------------------|-7-----------------------6----2--4--|--------|---------*||
|-(2)----------------------|-5-----------------------4----0--2--|--------|---------*||
|
|  W                         H                       Q    E  E    W        W
|--------------------------|------------------------------------|--------|---------*||
|--------------------------|------------------------------------|--------|---------*||
|--------------------------|------------------------------------|--------|---------*||
|-(4)----------------------|-7-----------------------6----2--4--|--------|---------*||
|-(4)----------------------|-7-----------------------6----2--4--|--------|---------*||
|-(2)----------------------|-5-----------------------4----0--2--|--------|---------*||
Tap to rate this tab
 
# A B C D E F G H I J K L M N O P Q R S T U V W X Y Z