Song name
# A B C D E F G H I J K L M N O P Q R S T U V W X Y Z

White Zombie - More Human Than Human tab

White Zombie - More Human Than Human
Astrocreep 2000	
Tabbed By Steven Wyatt	
Tuning - Drop C#

This is a great song for just straight up jamming.  The slide work is
pretty simple and sounds cool as hell.  Just remember that with this song
YOU MUST USE A SLIDE.  And also, some of this song has two guitars playing
at the same time, but I've tabbed it out for one guitar with MASS DISTORTION

0:19
Verse Riff
D#|------------------|
A#|------------------|
F#|------------------| x4
C#|--0-0-------------| 
G#|--0-0-------------|
C#|--0-0-------------|

0:37
Main Riff
D#|--1//10\\2//12\\2//13\\2//13//15\\----|
A#|--1//10\\2//12\\2//13\\2//13//15\\----|
F#|--1//10\\2//12\\2//13\\2//13//15\\----|
C#|--------------------------------------| 
G#|--------------------------------------|
C#|--------------------------------------|

D#|--1//10\\2//12\\2//13\\2----------------------|
A#|--1//10\\2//12\\2//13\\2//12//15\\12//15\\----|
F#|--1//10\\2//12\\2//13\\2//12//15\\12//15\\----|
C#|----------------------------------------------|
G#|----------------------------------------------|
C#|----------------------------------------------|

D#|--1//10\\2//12\\2//13\\2//13//15\\----|
A#|--1//10\\2//12\\2//13\\2//13//15\\----|
F#|--1//10\\2//12\\2//13\\2//13//15\\----|
C#|--------------------------------------| 
G#|--------------------------------------|
C#|--------------------------------------|

D#|--1////////////////////////22\\\\x----|
A#|--1////////////////////////22\\\\x----|
F#|--1////////////////////////22\\\\x----|
C#|--------------------------------------| 
G#|--------------------------------------|
C#|--------------------------------------|

1:16
Verse Riff
D#|----------------|
A#|----------------|
F#|----------------| x4
C#|--0-0-----------| 
G#|--0-0-----------|
C#|--0-0-----------|

1:25
Pre-Chorus Riff
D#|----------------------|
A#|----------------------|
F#|----------------------| x4
C#|--0-0-----------0-0---| 
G#|--0-0-----------0-0---|
C#|--0-0-----------0-0---|

1:34
Chorus Riff
D#|----------------------|
A#|----------------------|
F#|----------------------| x6
C#|--0-0-0000-0-0-0000---| 
G#|--0-0-0000-0-0-0000---|
C#|--0-0-0000-0-0-0000---|
         PM-|     PM-|

D#|-----| 
A#|-----|
F#|-----|
C#|--0--| 
G#|--0--|
C#|--0--|

1:51
Main Riff
D#|--1//10\\2//12\\2//13\\2//13//15\\----|
A#|--1//10\\2//12\\2//13\\2//13//15\\----|
F#|--1//10\\2//12\\2//13\\2//13//15\\----|
C#|--------------------------------------| 
G#|--------------------------------------|
C#|--------------------------------------|

D#|--1//10\\2//12\\2//13\\2----------------------|
A#|--1//10\\2//12\\2//13\\2//12//15\\12//15\\----|
F#|--1//10\\2//12\\2//13\\2//12//15\\12//15\\----|
C#|----------------------------------------------|
G#|----------------------------------------------|
C#|----------------------------------------------|

D#|--1//10\\2//12\\2//13\\2//13//15\\----|
A#|--1//10\\2//12\\2//13\\2//13//15\\----|
F#|--1//10\\2//12\\2//13\\2//13//15\\----|
C#|--------------------------------------| 
G#|--------------------------------------|
C#|--------------------------------------|

D#|--1////////////////////////22\\\\x----|
A#|--1////////////////////////22\\\\x----|
F#|--1////////////////////////22\\\\x----|
C#|--------------------------------------| 
G#|--------------------------------------|
C#|--------------------------------------|

2:22
Verse Riff
D#|----------------|
A#|----------------|
F#|----------------| x4
C#|--0-0-----------| 
G#|--0-0-----------|
C#|--0-0-----------|

2:31
Pre-Chorus Riff
D#|----------------------|
A#|----------------------|
F#|----------------------| x4
C#|--0-0-----------0-0---| 
G#|--0-0-----------0-0---|
C#|--0-0-----------0-0---|

2:41
Chorus Riff
D#|----------------------|
A#|----------------------|
F#|----------------------| x6
C#|--0-0-0000-0-0-0000---| 
G#|--0-0-0000-0-0-0000---|
C#|--0-0-0000-0-0-0000---|
         PM-|     PM-|

D#|-----| 
A#|-----|
F#|-----|
C#|--0--| 
G#|--0--|
C#|--0--|

2:57
Main Riff
D#|--1//10\\2//12\\2//13\\2//13//15\\----|
A#|--1//10\\2//12\\2//13\\2//13//15\\----|
F#|--1//10\\2//12\\2//13\\2//13//15\\----|
C#|--------------------------------------| 
G#|--------------------------------------|
C#|--------------------------------------|

D#|--1//10\\2//12\\2//13\\2----------------------|
A#|--1//10\\2//12\\2//13\\2//12//15\\12//15\\----|
F#|--1//10\\2//12\\2//13\\2//12//15\\12//15\\----|
C#|----------------------------------------------|
G#|----------------------------------------------|
C#|----------------------------------------------|

D#|--1//10\\2//12\\2//13\\2//13//15\\----|
A#|--1//10\\2//12\\2//13\\2//13//15\\----|
F#|--1//10\\2//12\\2//13\\2//13//15\\----|
C#|--------------------------------------| 
G#|--------------------------------------|
C#|--------------------------------------|

D#|--1////////////////////////22\\\\x----|
A#|--1////////////////////////22\\\\x----|
F#|--1////////////////////////22\\\\x----|
C#|--------------------------------------| 
G#|--------------------------------------|
C#|--------------------------------------|

3:21
Verse Riff
D#|----------------|
A#|----------------|
F#|----------------| x7
C#|--0-0-----------| 
G#|--0-0-----------|
C#|--0-0-----------|

3:27
Alt. Chorus Riff
D#|------3\-----5\-----7\-----9\-----11\-----15\-----16\-----18\---|
A#|------3\-----5\-----7\-----9\-----11\-----15\-----16\-----18\---|
F#|------3\-----5\-----7\-----9\-----11\-----15\-----16\-----18\---|
C#|--0-0----0-0----0-0----0-0----0-0-----0-0-----0-0-----0-0-------|
G#|--0-0----0-0----0-0----0-0----0-0-----0-0-----0-0-----0-0-------|
C#|--0-0----0-0----0-0----0-0----0-0-----0-0-----0-0-----0-0-------|

D#|--1////10\\\\2////12\\\\2////13\\\\2////13////15\\\\----|
A#|--1////10\\\\2////12\\\\2////13\\\\2////13////15\\\\----|
F#|--1////10\\\\2////12\\\\2////13\\\\2////13////15\\\\----| x2
C#|--0-0--------0-0--------0-0--------0-0------------------| 
G#|--0-0--------0-0--------0-0--------0-0------------------|
C#|--0-0--------0-0--------0-0--------0-0------------------|

3:56
Outro
D#|------3\-----5\-----7\-----9\-----11\-----15\-----16\-----18\---|
A#|------3\-----5\-----7\-----9\-----11\-----15\-----16------18\---|
F#|------3------5\-----7\-----9\-----11\-----15\-----16\-----18\---|
C#|--0-0----0-0----0-0----0-0----0-0-----0-0-----0-0-----0-0-------|
G#|--0-0----0-0----0-0----0-0----0-0-----0-0-----0-0-----0-0-------|
C#|--0-0----0-0----0-0----0-0----0-0-----0-0-----0-0-----0-0-------|

D#|------2\--------------------------------3\-----6\-----9\-----12\---|
A#|------2\---------------2\-------2\------3\-----6\-----9\-----12\---|
F#|------2\------2\-------2\-------2\------3\-----6\-----9\-----12\---|
C#|--0-0----0-0--2\--0-0--2\--0-0--2\--0-0----0-0----0-0----0-0-------|
G#|--0-0----0-0-----0-0------0-0-------0-0----0-0----0-0----0-0-------|
C#|--0-0----0-0-----0-0------0-0-------0-0----0-0----0-0----0-0-------|

If you have any questions or suggestions email me at rip3149@yahoo.com







Tap to rate this tab
# A B C D E F G H I J K L M N O P Q R S T U V W X Y Z