Song name
# A B C D E F G H I J K L M N O P Q R S T U V W X Y Z

White Zombie - Thunder Kiss 65 tab

Thunderkiss 65

well since i saw that the tabs on the site weren't complete
and had none of the lead bits i thought ahhh what the hell let me tab
it out .....(i take no credit for this tab it is ripped from power tab)

Standard tuning ( i play it quarter down though )

main riff

e--------------------------------------------------------|
b--------------------------------------------------------|
g--------------------------------------------------------|
d--------------------------------------------------------|
a----------------2---1--------------------8---8--2---1---|
e-0-0-00-00-0-00---3---2-0-0-00-00-0-00-006-006----3---2-|
pm the open notes

verse

same as riff except without the Bb5 chords

chorus

alright this is two guitars im gonna do the lead and rhythm

RHYTHM

e----------------------|
b---8----------8-------|
g---7----------7-------|  etc.
d---6----------6-------|
a-2-7-7----5-2-7-5-6-7-|
e-0---5--0-3-0---------|

LEAD

e-12------12--------------------------------------------------|
b-15B(17)-15B-15B15B15B15B15B15B15B15B15B15B15B---------------|
g-----------------------------------------------12-14-14B(16)-|
d-------------------------------------------------------------|
a-------------------------------------------------------------|
e-------------------------------------------------------------|

e-------------------------------|
b---------------------15--------|
g-14-12-11-12-14B(16)----14B-12-|
d-------------------------------|
a-------------------------------|
e-------------------------------|

e-----------------------------------|
b-7B(9)-5---5-xx----------5--5--5-5-|
g---------7---------------7B-7B-----|
d-----------------7B(9)-5-----------|
a-----------------------------------|
e-----------------------------------|

Unison bends!

e---------------------------------------------------------------|
b-7---8--10-12-12-12--12-12-12--12-12-12----15BrB-12-12---------|
g-9B-10B-12B------14B-------14B-------14B---------------14B-14B-|
d-----------------------------------------0---------------------|
a---------------------------------------------------------------|
e---------------------------------------------------------------|

chorus 2 is the same

Bridge

e---------------------------|
b---------------------------|
g---------------------------|
d-------2-5---8-7-----------|
a-7---5-0-3-0-6-5-5-5-7-7---|
e-5-0-3-----------3-3-5-5-3-|

e---------------------------|
b---------------------------|
g---------------------------|
d-------2-5---8-7-----------|
a-5-6-5-0-3-0-6-5-5-5-7-7---|
e-3-4-3-----------3-3-5-5-3-|

e-----------------------------|
b-----------------------------|
g-----------------------------|
d--------------------2------2-|
a-5-6-5-4---4-3-3-3--2------2-|
e-3-4-3-2---2-1-1-1--0--3-5-0-|

SOLO

More unison bends!

e--------------5---7--5-----3--|
b-5-----6--5-5-8B-10B-8B-8B-6B-|
g-7B(9)-8B-7B------------------|
d------------------------------|
a------------------------------|
e------------------------------|

e-------15-12-------15-12-------15-12-------------|
b-15-12-------15-12-------15-12-------15-12-15-12-|
g-------------------------------------------------|
d-------------------------------------------------|
a-------------------------------------------------|
e-------------------------------------------------|

e-----------------------------------12----|
b--------------------------15----12----12-|
g-14-14-14-14-14B-------------14-14B------|
d-----------------14-14-14----------------|
a-----------------------------------------|
e-----------------------------------------|

e--------12--15--19--|
b-14--15-15B-18B-22B-|
g-16B-17B------------|
d--------------------|
a--------------------|
e--------------------|

Verse 3

e-----------------|
b-----------------|
g-----------------|
d-----------------|
a-2-2-5-------5-7-|
e-0-0-3-00-00-3-5-|

e-------------------|
b-------------------|
g-------------------|
d-------------------|
a-2-2-5-------5-4-3-|
e-0-0-3-00-00-3-2-1-|

outro

e------------------------------------------|
b------------------------------------------|
g------------------------------------------|
d------------------------------------------|
a-4-3-4-3-4-3-4-3--------------------------|
e-2-1-2-1-2-1-2-1--2-1-2-1-2-1-2-1-2-1-2-1-|

have fun with that its a really fun song
Tap to rate this tab
 
# A B C D E F G H I J K L M N O P Q R S T U V W X Y Z