Song name
# A B C D E F G H I J K L M N O P Q R S T U V W X Y Z

White Zombie - Soul Crusher tab

-----------------------------------------------------------------------------
			     Soul Crusher - White Zombie
-----------------------------------------------------------------------------
Tabbed by: Egon
Email: eb19001010@gmail.com

Tuning:Standard (EADGBe)
              Intro
e|-----------------|    |--------|   
B|-----------------|    |--------|   
G|---78-85--57-----| x4 |--6-6-6-|    Play the entire riff twice 
D|--0--0--70--56---|    |--6-6-6-|   
A|--------------8--|    |--4-4-4-|   
E|-----------------|    |--------|   

e|---------------------------------|
B|---------------------------------|
G|---------------------------------| Repeat x4
D|--2-----2------2-3-----3-------3-|
A|--0-00000-000000-1-11111-1111111-|
E|---------------------------------|

The entire intro is played a second time through

                                               1st  2nd     
e|-------------------------------------------|-----|----|
B|-------------------------------------------|-----|----|
G|-------------------------------------------|-----|----|
D|--8\7-777777-5/7-77------8\7-777777-5/7-77-|--75-|----| Play riff twice
A|--6\5-555555-3/5-55-6666-6\5-555555-3/5-55-|65---|-43-|
E|--------------------4444-------------------|-----|-21-|

					2nd Ending (this may be off)
e|-----------------------------------|--------------|
B|-----------------------------------|--------------|
G|-----------------------------------|--------------| Play twice
D|-----9-9---7/9-7/9-----9--52-------|--------------|
A|-----7-7---5/7-5/7-----7----52-----|--5-7-8\7-5/7-|
E|-0000-0-000--------0000-------6535-|-030506\5-3/5-|

e|--------------------------------------------------------------------------|
B|--------------------------------------------------------------------------|
G|--------------------------------------------------------------------------|
D|-8---7-----5----------8----7----5----8-10-8----7----5----------8----7-----|
A|-6---5-----3----6-----6----5----3----6- 8-6----5----3----6-----6----5-----|
E|--0000-0000-00004-0000-0000-0000-0000------0000-0000-00004-0000-0000-0000-|

e|----------|
B|----------|
G|----------|
D|----------|
A|-35-654-3-|
E|----432-1-|

                                    2nd ending	  Final
e|--------------------------------|-------------|-----------|
B|--------------------------------|-------------|-----------|
G|-------------11\----------------|-------------|-----------|
D|--------------------------------|-------------|-----------|
A|-----4-----4- 9\-----4-----4-87-|-7-8-9-10-11-|-9-987-987-|
E|-02222-02302-----02222-02302-65-|-5-6-7- 8- 9-|-7-765-765-|

e|-------------------------------|
B|-------------------------------|
G|-------------------------------| Repeat several times
D|-------------------------------|
A|-------------5-------------8-7-|
E|-02-02-02-02-3-02-02-02-02-6-5-|

The final riff is the intro played on the D, A and low E strings.

I left out the palm muting intentionally, you can add those on your 
own with the tempo and the song pattern.  There are several fills 
and other things that I also haven't covered, if anyone would like to 
add them feel free.

Comment or submit corrections if you would like.


************************************

| /   slide up
| \   slide down
| h   hammer-on
| p   pull-off
| ~   vibrato
| +   harmonic
| x   Mute note
| b   Bend
| pb  Pre-bend
| br  Bend release
| pbr Pre-bend release
| brb Bend release bend

************************************
Tap to rate this tab
 
# A B C D E F G H I J K L M N O P Q R S T U V W X Y Z