Song name
# A B C D E F G H I J K L M N O P Q R S T U V W X Y Z

White Zombie - Black Sunshine tab

Band- White Zombie
Song- Black Sunshine
Album- La Sexorcisto: Devil Music Volume 1
Year- 1992
Guitarist - J.



Intro


e|---9------12------9------3------9------12------9------12-----------------|
B|---9------12------9------3------9------12------9------12-----------------|
G|---9------12------9------3------9------12------9------12-----------------|
D|---9------12------9------3------9------12------9------12-----------------|
A|-------------------------------------------------------------------------|
E|-------------------------------------------------------------------------|


e|-------------------------------------------------------------------------|
B|-------------------------------------------------------------------------|
G|-------------------------------------------------------------------------|
D|---------------------------------------5---------------------------------|
A|---0---3---5---0---5---6---0---5--6--7---6-------------------------------|
E|-------------------------------------------------------------------------|


Verse

e|---9------12------9------3------9------12------9------12-----------------|
B|---9------12------9------3------9------12------9------12-----------------|
G|---9------12------9------3------9------12------9------12-----------------|
D|---9------12------9------3------9------12------9------12-----------------|
A|-------------------------------------------------------------------------|
E|-------------------------------------------------------------------------|


Chorus

e|-------------------------------------------------------------------------|
B|-------------------------------------------------------------------------|
G|-------------------------------------------------------------------------|
D|---------------------------------------5---------------------------------|
A|---0---3---5---0---5---6---0---5--6--7---6-------------------------------|
E|-------------------------------------------------------------------------|


Verse 2

e|---9------12------9------3------9------12------9------12-----------------|
B|---9------12------9------3------9------12------9------12-----------------|
G|---9------12------9------3------9------12------9------12-----------------|
D|---9------12------9------3------9------12------9------12-----------------|
A|-------------------------------------------------------------------------|
E|-------------------------------------------------------------------------|


Chorus

e|-------------------------------------------------------------------------|
B|-------------------------------------------------------------------------|
G|-------------------------------------------------------------------------|
D|---------------------------------------5---------------------------------|
A|---0---3---5---0---5---6---0---5--6--7---6-------------------------------|
E|-------------------------------------------------------------------------|


Pre Solo


e|-------------------------------------------------------------------------|
B|-------------------------------------------------------------------------|
G|-------------------------------------------------------------------------|
D|-------------------------------------------------------------------------|
A|----------------------------------------3--4--5--6-----------------------|
E|---2--1--0--2--1--0--2--1--0--2--1--0---1--2--3--4-----------------------|


Solo 1

e|-------------------------------------------------------------------------|
B|------------------------17b/--------------------------8b/----------------|
G|----2b--5b---7b---9b----------------2b---5b--7b---9b---------------------|
D|-------------------------------------------------------------------------|
A|-------------------------------------------------------------------------|
E|-------------------------------------------------------------------------|


Verse 3

e|------------------5b------------------12b-12b-12b------------------------|
B|------------------5b------------------12b-12b-12b------------------------|
G|------------------5b------------------12b-12b-12b------------------------|
D|-------------------------------------------------------------------------|
A|-------------------------------------------------------------------------|
E|-00000000000000---------00000000-----------------------------------------|


Solo 2

e|-------------------------------------------------------------------------|
B|-----2b--5b---7b/---9b------9b-------------------------------------------|
G|-------------------------------------------------------------------------|
D|-------------------------------------------------------------------------|
A|-------------------------------------------------------------------------|
E|-------------------------------------------------------------------------|


Verse 4

e|------------------5b------------------12b-12b-12b------------------------|
B|------------------5b------------------12b-12b-12b------------------------|
G|------------------5b------------------12b-12b-12b------------------------|
D|-------------------------------------------------------------------------|
A|-------------------------------------------------------------------------|
E|-00000000000000---------00000000-----------------------------------------|


Pre-Chorus

e|-------------------------------------------------------------------------|
B|-------------------------------------------------------------------------|
G|-------------------------------------------------------------------------|
D|-------------------------------------------------------------------------|
A|-------------------------------------------------------------------------|
E|---0---3---5---0---3---5---0---3---5---0---6--5--------------------------|


Chorus

e|-------------------------------------------------------------------------|
B|-------------------------------------------------------------------------|
G|-------------------------------------------------------------------------|
D|-------------------------------------------------------------------------|
A|---------------------------------------5---------------------------------|
E|---0---3---5---0---5---6---0---5--6--7---6-------------------------------|

Interlude

e|-------------------------------------------------------------------------|
B|-------------------------------------------------------------------------|
G|-------------------------------------------------------------------------|
D|---------------------------------------5---------------------------------|
A|---0---3---5---0---5---6---0---5--6--7---6-------------------------------|
E|-------------------------------------------------------------------------|

The riff below is played in the background 

e|---0000000000000000-2222222222222222-------------------------------------|
B|---0000000000000000-2222222222222222-------------------------------------|
G|-------------------------------------------------------------------------|
D|-------------------------------------------------------------------------|
A|-------------------------------------------------------------------------|
E|-------------------------------------------------------------------------|

Outro

e|-------------------------------------------------------------------------|
B|-------------------------------------------------------------------------|
G|-------------------------------------------------------------------------|
D|-2---3--2-------3--2----3--2/--------------------------------------------|
A|-2---3--2-------3--2----3--2/--------------------------------------------|
E|-0---1--0-------1--0----1--0---------------------------------------------|


a|-------------------------------------------------------------------------|
B|-------------------------------------------------------------------------|
G|-------------------------------------------------------------------------|
D|-------------------------------------------------------------------------|
A|-----------------------------2------------------------2-----3---3--------|
E|-0-0-0-0-0-0-0-0-0-0-0-0-0-1---1--0-0-0-0-0-0-0-0-0-1---0-2---3----------|

a|-------------------------------------------------------------------------|
B|-------------------------------------------------------------------------|
G|-------------------------------------------------------------------------|
D|-------------------------------------------------------------------------|
A|-----------------------------2------------------------2-----3---3--------|
E|-0-0-0-0-0-0-0-0-0-0-0-0-0-1---1--0-0-0-0-0-0-0-0-0-1---0-2---3----------|

a|-------------------------------------------------------------------------|
B|-------------------------------------------------------------------------|
G|-------------------------------------------------------------------------|
D|--------------------------------------------------3-----2-1--------------|
A|-----------------------------2----------------------2-1-----0------------|
E|-0-0-0-0-0-0-0-0-0-0-0-0-0-1---1--0-0-0-0-0-0-0-0-------------4h5p4h5----|

a|-------------------------------------------------------------------------|
B|-------------------------------------------------------------------------|
G|-------------------------------------------------------------------------|
D|--------------------------------------------------4----------------------|
A|-----------------------------2--------------------4----------------------|
E|-0-0-0-0-0-0-0-0-0-0-0-0-0-1---1--0-0-0-0-0-0-0-0-2----------------------|

e|-------------------------------------------------------------------------|
B|-------------------------------------------------------------------------|
G|------2-3-4-3------------------------------------------------------------|
D|---------------4-3-2-1---------------------------------------------------|
A|-------------------------------------------------------------------------|
E|-------------------------0-----------------------------------------------|


                                Wot a Song!!!!!!!!
Tap to rate this tab
 
# A B C D E F G H I J K L M N O P Q R S T U V W X Y Z