White Zombie - Soul Crusher tab

"Soul Crusher"
by White Zombie
This song was written when Rob Zombie was actually cool!
So far away now.... t'is a shame.

INTRO
|-------------------------------|-----|-----------------------------|
|:-----------------------------:|-----|:---------------------------:|
|---=-78-=-8----=-5/7-=-0-1-----|-666-|--=-78-=-8----=-57-=-0-1-----|
|---0----0---87-0-----0-----3---|-666-|--0----0---87-0----0-----3---|
|:-----------------------------:|-444-|:---------------------------:|
|-------------------------------|-444-|-----------------------------|


INTRO
-----|----------------------------|------|
-----|:--------------------------:|------|
-666-|--9---9---9-10--10--10------|-888--|
-666-|--7===7===7==8===8===8------|-888--|
-444-|:--000-000-00-000-000--00--:|-666--|
-444-|----------------------------|-666--|


INTRO
|-------------------------------|-----|-----------------------------|
|:-----------------------------:|-----|:---------------------------:|
|---=-78-=-8----=-5-7-=-0-1-----|-666-|--=-78-=-8----=-57-=-0-1-----|
|---0----0---87-0-----0-----3---|-666-|--0----0---87-0----0-----3---|
|:-----------------------------:|-444-|:---------------------------:|
|-------------------------------|-444-|-----------------------------|


INTRO
-----|----------------------------|
-----|:--------------------------:|
-666-|--9---9---9-10--10--10------|
-666-|--7===7===7==8===8===8------|
-444-|:--000-000-00-000-000--00--:|
-444-|----------------------------|



VERSE
--------------------------------------------|
--------------------------------------------|
----======---==----------======---==--------|
-8\7777777-5777-====--8\7777777-5777----76--|
-6\5555555-3555-6666--6\5555555-3555-76-----|
----------------4444------------------------|



VERSE
--------------------------------------------|
--------------------------------------------|
----======---==----------======---==--------|
-8\7777777-5777-====--8\7777777-5777-4-3----|
-6\5555555-3555-6666--6\5555555-3555-4-3----|
----------------4444-----------------2-1----|



VERSE
--------------------------------------------|
--------------------------------------------|
----======---==----------======---==--------|
-8\7777777-5777-====--8\7777777-5777----76--|
-6\5555555-3555-6666--6\5555555-3555-76-----|
----------------4444------------------------|



VERSE
--------------------------------------------|
--------------------------------------------|
----======---==----------======---==--------|
-8\7777777-5777-====--8\7777777-5777-4-3----|
-6\5555555-3555-6666--6\5555555-3555-4-3----|
----------------4444-----------------2-1----|


VERSE
------------------------------------------------------------------------|
------------------------------------------------------------------------|
------------------------------------------------------------------------|
-------9---9-----7/9-7/9------9-5---------------------9---9-----7/9-7/9-|
--====-7-=-7-===-5/7-5/7-====-7---7-5------------====-7-=-7-===-5/7-5/7-|
--0000---0---000---------0000---------7-6-5-3/5--0000---0---000---------|


VERSE
-----------------------------------------------------------------------|
-----------------------------------------------------------------------|
-----------------------------------------------------------------------|
------9------------------------9---9-----7/9-7/9------9-5--------------|
-====-7-=-5-=-7-=-8-7-5/7-====-7-=-7-===-5/7-5/7-====-7--7-5-----------|
-0000---0-3-0-5-0-6-5-3/5-0000---0---000---------0000--------7-6-5-3/6-|


VERSE
---------------------------------------------|
---------------------------------------------|
---------------------------------------------|
-----9---9-----7/9-7/9------9-5--------------|
====-7-=-7-===-5/7-5/7-====-7--7-5-----------|
0000---0---000---------0000--------7-6-5-6/7-|



Fig. A
---------------------------------------------------|
---------------------------------------------------|
--8-===-7-===-5-===-------8-===-7-===-5-===-8-10---|
--8-000-7-000-5-000-6-----8-000-7-000-5-000-8-10---|
--6-----5-----3-----6-===-6-----5-----3-----6--8---|
--------------------4-444--------------------------|


Fig. A
--------------------------------------------------|
--------------------------------------------------|
--8-===-7-===-5-===-------8-===-7-===-------------|
--8-000-7-000-5-000-6-----8-000-7-000-==----4-3---|
--6-----5-----3-----6-===-6-----5-----35-==-4-3---|
--------------------4-444----------------43-2-1---|



VERSE
------------------------------------------------------------------------|
------------------------------------------------------------------------|
------------------------------------------------------------------------|
-------9---9-----7/9-7/9------9-5---------------------9---9-----4^5-4^5-|
--====-7-=-7-===-5/7-5/7-====-7---7-5------------====-7-=-7-===-7-7-7-7-|
--0000---0---000---------0000---------7-6-5-3/5--0000---0---000---------|


VERSE
------------------------------------------------------------------|
------------------------------------------------------------------|
------------------------------------------------------------------|
------9-------------------==---rest---==--rest---5----------------|
-====-7-=-5-=-7-=-8-7-5/7-22----------22-----------7-5------------|
-0000---0-3-0-5-0-6-5-3/5-00----------00---------------7-6-5-3/5--|



VERSE
-------------------------------------------|
-------------------------------------------|
-------------------------------------------|
-----9---9-----4^5-4^5------9-5------------|
====-7-=-7-===-7-7-7-7-====-7---75---------|
0000---0---000---------0000--------765-3/5-|



BRIDGE
-------------------------------------------------------------------------|
---------------------7-^-(7)-----------------------------------------7---|
--------------------10^-^10------------------------------------------10--|
--------4---------4----------------4---------4-8-7-------4---------4-----|
--=-===-4-=-=-=-=-4----------=-===-4-=-=-=-=-4-8-7-=-===-4-=-=-=-=-4-----|
--0-222-2-0-2-3-0-2----------0-222-2-0-2-3-0-2-6-5-0-222-2-0-2-3-0-2-----|


BRIDGE
---------------------------------------------------------------------|
--------------------------------------------7------------------------|
---------------=---------------------------10^-----------------------|
-------4-------2-4-5/6---------4---------4-----------4---------4-8-7-|
-=-===-4-=-=-4-0-2-3/4---=-===-4-=-=-=-=-4-----=-===-4-=-=-=-=-4-8-7-|
-0-222-2-0-2-2-----------0-222-2-0-2-3-0-2-----0-222-2-0-2-3-0-2-6-5-|


BRIDGE
-----------------------------------------------------------|
-------------------7---------------------------------------|
------------------10^---------------4-QUICK----------------|
------4---------4-------------4-----4-REST-----------------|
=-===-4-=-=-=-=-4-------=-===-4-=-=-2-------9\8\7--9\8\7---|
0-222-2-0-2-3-0-2-------0-222-2-0-2---------7\6\5--7\6\5---|


VERSE
------------------------------------------------|
------------------------------------------------|
------------------------------------------------|
-------9---9-----7/9-7/9------9-5---------------|
--====-7-=-7-===-5/7-5/7-====-7---7-5-----------|
--0000---0---000---------0000---------7-6-5-3/5-|



VERSE
------------------------------------------------|
------------------------------------------------|
------------------------------------------------|
-----9---9-----4^5-4^5------9-------------------|
====-7-=-7-===-7-7-7-7-====-7-=-5-=-7-=-8-7-5/7-|
0000---0---000---------0000---0-3-0-5-0-6-5-3/5-|


VERSE
------------------------------------------------|
------------------------------------------------|
------------------------------------------------|
-------9---9-----7/9-7/9------9-5---------------|
--====-7-=-7-===-5/7-5/7-====-7---7-5-----------|
--0000---0---000---------0000---------7-6-5-3/5-|


VERSE
-------------------------------------------|
-------------------------------------------|
-------------------------------------------|
-----9---9-----4^5-4^5------9-5------------|
====-7-=-7-===-7-7-7-7-====-7---75---------|
0000---0---000---------0000--------765-3/5-|


----------|--------------------------------------------------|
----------|:------------------------------------------------:|
----------|--------------------------------------------------|
----4-----|--pm-------5----------5----------5----------8-7---|
----4-----|:-========-5-========-5-========-5-========-8-7--:|
--0-2-----|--02020202-3-02020202-3-02020202-3-02020202-6-5---|


Guitar One
--------------------------------------------------|
--------------------------------------------------|
--11-----------9--11--------9/10\-----------------|
--11--10----4--x--11-10--4--x--x\--x\\\\----------|
---9---x----x--7---9--x--x--7-/8\--x\\\\\---------|
-------8----2---------8--2---------x\\\\\\--------|


PLAY UNDER GUITAR 0ne
|----------------------------|
|:-------------------------:-|
|----------------------------|
|-----------5------------5---|
|:-========-5---========-5-:-|
|--02020202-3-0-02020202-3---|



|--------------------------------------------------|
|:------------------------------------------------:|
|--------------------------------------------------|
|--pm-------5----------5----------5----------8-7---|
|:-========-5-========-5-========-5-========-8-7--:|
|--02020202-3-02020202-3-02020202-3-02020202-6-5---|


OUTRO
|-------------------------------|-----|-----------------------------|
|:------------------------------|-----|:---------------------------:|
|-------------------------------|-----|-----------------------------|
|---=-78-=-8----=-5-7-=-0-1-----|-666-|--=-78-=-8----=-57-=-0-1-----|
|:--0----0---87-0-----0-----3---|-666-|:-0----0---87-0----0-----3--:|
|-------------------------------|-444-|-----------------------------|


OUTRO
-----------------------------------------|
-----------------------------------------|
-----------------------------------------|
-6666666---------------------------------|
-6666666---------------------------------|
-4444444---------------------------------|
Tap to rate this tab
 
# A B C D E F G H I J K L M N O P Q R S T U V W X Y Z