White Zombie - I Am Legend tab

For the intro, note for fucking perfect note, go here:
http://www.ultimate-guitar.com/tabs/w/white_zombie/i_am_legend_intro_tab.htm
The intro is tabbed out by Marty Carlton

Here's the rest of the song.

VERSE
|------------------------------------------------|
|:-----------------------------------------------|
|------------------------------------------------|
|--7/99-7/9--7/99-7/9--7/99-7/9-PM---------------|
|:-5/77-5/7--5/77-5/7--5/77-5/7-==-5-==-7-==-8-7-|
|-------------------------------00-3-00-5-00-6-5-|



VERSE
------------------------------------------------|
-----------------------------------------------:|
-----------------------------------5--------2---|
-7/99-7/9--7/99-7/9--7/99-7/9-PM---5--------2---|
-5/77-5/7--5/77-5/7--5/77-5/7-==---3--------0--:|
------------------------------00---3--------0---|




--------------------------------------------------------------------|
--------------------------------------------------------------------|
--------------------------------------------------------------------|
--------------------------4/5\4-2-------------------PM--------------|
-----3/4---3/4-=-4-=-4-=--2/3\2-0----3/4---3/4-=-4--=============---|
---0-1/2-0-1/2-0-2-0-2-0-----------0-1/2-0-1/2-0-2--3-2-1-0-1-2-3---|



--------------------------------------------------------------------|
--------------------------------------------------------------------|
--------------------------------------------------------------------|
--------------------------4/5\4-2-----------------------------------|
-----3/4---3/4-=-4-=-4-=--2/3\2-0----3/4---3/4-=-4--=-4-=-4-=-5-----|
---0-1/2-0-1/2-0-2-0-2-0-----------0-1/2-0-1/2-0-2--0-2-0-2-0-3-----|



---------------------------------------------------------------------|
---------------------------------------------------------------------|
---------------------------------------------------------------------|
--------------------------4/5\4-2-------------------PM---------------|
-----3/4---3/4-=-4-=-4-=--2/3\2-0----3/4---3/4-=-4--=============----|
---0-1/2-0-1/2-0-2-0-2-0-----------0-1/2-0-1/2-0-2--3-2-1-0-1-2-3----|



--------------------------------------------------------------------|
--------------------------------------------------------------------|
--------------------------------------------------------------------|
--------------------------4/5\4-2-----------------------------------|
-----3/4---3/4-=-4-=-4-=--2/3\2-0----3/4---3/4-==-5-==-7-==-8-7-----|
---0-1/2-0-1/2-0-2-0-2-0-----------0-1/2-0-1/2-00-3-00-5-00-6-5-----|



VERSE
|------------------------------------------------|
|:-----------------------------------------------|
|------------------------------------------------|
|--7/99-7/9--7/99-7/9--7/99-7/9-PM---------------|
|:-5/77-5/7--5/77-5/7--5/77-5/7-==-5-==-7-==-8-7-|
|-------------------------------00-3-00-5-00-6-5-|



VERSE
------------------------------------------------|
-----------------------------------------------:|
-----------------------------------5--------2---|
-7/99-7/9--7/99-7/9--7/99-7/9-PM---5--------2---|
-5/77-5/7--5/77-5/7--5/77-5/7-==---3--------0--:|
------------------------------00---3--------0---|



---------------------------------------------------------------------|
---------------------------------------------------------------------|
---------------------------------------------------------------------|
--------------------------4/5\4-2-------------------PM---------------|
-----3/4---3/4-=-4-=-4-=--2/3\2-0----3/4---3/4-=-4--=============----|
---0-1/2-0-1/2-0-2-0-2-0-----------0-1/2-0-1/2-0-2--3-2-1-0-1-2-3----|



--------------------------------------------------------------------|
--------------------------------------------------------------------|
--------------------------------------------------------------------|
--------------------------4/5\4-2-----------------------------------|
-----3/4---3/4-=-4-=-4-=--2/3\2-0----3/4---3/4-==-5-==-7-==-8-7-----|
---0-1/2-0-1/2-0-2-0-2-0-----------0-1/2-0-1/2-00-3-00-5-00-6-5-----|



-------------------------------------------------------------------|
-------------------------------------------------------------------|
-------------------------------------------------------------------|
------2------3---2--5----------------2------3---2---5--------------|
------2------3---2--5--0-1-2--5-2-1--2------3---2---5--0-1-2-5-2-1-|
------0------1---0--3----------------0------1---0---3--------------|


|--------------------------------------------------------|
|:-------------------------------------------------------|
|---9-----9-----9--------------9-----9-----9-------------|
|---9-pm--9-----9--------------9-----9-----9-------------|
|:--7-===-7-===-7-===-5-7-8-7--7-===-7-===-7-===-8-7-5-7-|
|-----000---000---000-3-5-6-5----000---000---000-6-5-3-5-|



-----------------------------------------------------|
----------------------------------------------------:|
----9-----9-----9--------------9-----9-------3---3---|
----9-pm--9-----9--------------9-----9-------3---3---|
----7-===-7-===-7-===-5-7-8-7--7-===-7-===-=-1-=-1--:|
------000---000---000-3-5-6-5----000---000-0-1-0-1---|



--------------------------------------------------------------------|
--------------------------------------------------------------------|
---------------------------------------------------quick-rest-for---|
--------------------------4/5\4-2--------------------drum roll------|
-----3/4---3/4-=-4-=-4-=--2/3\2-0----3/4---3/4-=-4------------------|
---0-1/2-0-1/2-0-2-0-2-0-----------0-1/2-0-1/2-0-2------------------|



-------------------------------------------------------|
-------------------------------------------------------|
--------------------------------------------------3----|
--------------------------4/5\4-2-----------------3--5-|
-----3/4---3/4-=-4-=-4-=--2/3\2-0----3/4---3/4-==-1--5-|
---0-1/2-0-1/2-0-2-0-2-0-----------0-1/2-0-1/2-00-1--3-|




Rhythm under solo
-------------------------------------------------|
-------------------------------------------------|
-------------------------------------------------|
---7/99-7/9--7/99-7/9--7/99-7/9-PM---------------|
---5/77-5/7--5/77-5/7--5/77-5/7-==-5-==-7-==-8-7-|
--------------------------------00-3-00-5-00-6-5-|



Rhythm under solo
------------------------------------------------|
------------------------------------------------|
-----------------------------------5--------2---|
-7/99-7/9--7/99-7/9--7/99-7/9-PM---5--------2---|
-5/77-5/7--5/77-5/7--5/77-5/7-==---3--------0---|
------------------------------00---3--------0---|



Rhythm under solo
-------------------------------------------------|
-------------------------------------------------|
-------------------------------------------------|
---7/99-7/9--7/99-7/9--7/99-7/9-PM---------------|
---5/77-5/7--5/77-5/7--5/77-5/7-==-5-==-7-==-8-7-|
--------------------------------00-3-00-5-00-6-5-|



Rhythm under solo
--------------------------------------------------------------------------------|
--------------------------------------------------------------------------------|
--------------------------------------------------------------------------------|
---7/99-7/9--7/99-7/9--7/99-7/9-PM----------------------------------------------|quick
---5/77-5/7--5/77-5/7--5/77-5/7-==-5-==-7-==-8-7-5-==-7-==-87-5-==7-==-8--------|rest
--------------------------------00-3-00-5-00-6-5-3-00-5-00-65-3-005-00-6--------|


3xs
|------------------|-----------------------------------------------|
|:----------------:|-----------------------------------------------|
|------------------|-----------------------------------------------|
|------------------|--2--------------------------------------------|
|:-5-==-7-==-8-7--:|--2--------------------------------------------|
|--3-00-5-00-6-5---|--0--------------------------------------------|
Tap to rate this tab
 
# A B C D E F G H I J K L M N O P Q R S T U V W X Y Z