Song name
# A B C D E F G H I J K L M N O P Q R S T U V W X Y Z

White Zombie - Pig Heaven tab

Band- White Zombie
Song- Pig Heaven

Intro:

1 ------------------------------------------------------|
2 -17^-17^-17^-15---------------------------------------|
3 ---------------16-14-16-16^~~~~-14^-15-14^-15-14^-----|
4 ------------------------------------------------------|
5 ------------------------------------------------------|
6 --------------------------------------------------15\-|

Main Riff

1 -3-2-0-3-2-0-3-2-0-5-3-2-|
2 -3-2-0-3-2-0-3-2-0-5-3-2-|
3 -------------------------|
4 -------------------------|
5 -------------------------|
6 -------------------------|

Riff 2

1 -/12-12-12-12-12\-|
2 -/12-12-12-12-12\-|
3 ------------------|
4 ------------------|
5 ------------------|
6 ------------------|

Riff 3

1 -------------------------|
2 -------------------------|
3 -------------------------|
4 -------------0-0-0-2-2-2-|
5 -------1-1-1-------------|
6 -0-0-0-------------------|
Tap to rate this tab
# A B C D E F G H I J K L M N O P Q R S T U V W X Y Z