Song name
# A B C D E F G H I J K L M N O P Q R S T U V W X Y Z

Whitechapel - Prostatic Fluid Asphyxiation tab

Whitechapel-Prostatic Fluid Asphyxiation

This song is played on a 7-string guitar tuned to drop A (AEADGBE).
I have it tabbed for a 6 string guitar, but without the D (AEAGBE)

<>=pinch harmonic
/=slide up
\=slide down
b=bend (n)=what note to bend up to
r=release bend
p=pull off
h=hammer on

e---------------------------|
b---------------------------|
g---------------------------|
a---------------------------|x2
e-4-0-1-4-0-1-4-0-1-4-3-2-1-|
a-4-0-1-4-0-1-4-0-1-4-3-2-1-|

e---------------------------------|
b---------------------------------|
g---------------------------------|
a---------------------------------|x4
e---------1-----------0-----------|
a-1-2-1-2---2-1-0-1-2---2-1-0-1-2-|

e-------------------------------------------------------|
b-------------------------------------------------------|
g-------------------------------------------------------|
a-------------------------------------------------------|x5
e-------------------------------------------------------|
a-222-222-111-222-222-65/222-222-111-222-222-65/4h5-3h4-|

e------------------------------------------|
b------------------------------------------|
g------------------------------------------|
a----4-3---4-3---------4-3-----------------|x2
e----2-1---2-1---1h2---2-1-------1h2---0h1-|
a-0-1---0-1---0-1---0-1---0-1-0-1---0-1----|

e-------------------------------------------------------|
b-------------------------------------------------------|
g-------------------------------------------------------|
a-------------------------------------------------------|x2
e-------------------------------------------------------|
a-222-222-111-222-222-65/222-222-111-222-222-65/4h5-3h4-|

e------------------------------------------|
b------------------------------------------|
g------------------------------------------|
a----4-3---4-3---------4-3-----------------|x2
e----2-1---2-1---1h2---2-1-------1h2---0h1-|
a-0-1---0-1---0-1---0-1---0-1-0-1---0-1----|

e-------------------|
b-------------------|
g-------------------|
a-3-----------------|x4
e-1-2-1-0----<1>2-1-|
a---2-1-0-<2>---2-1-|

e--------------------|
b--------------------|
g--------------------|
a-2------------------|x4
e-1-0-0-0----<1>-2-1-|
a---0-0-0-<2>----2-1-|

e-----17---  ---------- -----17---  -----|
b---16--16-x6---------- ---16--16-  -----|
g-15-------  ---------- -15-------x3-----|
a----------  ---------- ----------  -----|
e----------  ----<1>--- ----------  -----|
a----------  -0-2---<2> ----------  -0-2-|


e-----17---  ---------- -----17---  -----|
b---16--16-x6---------- ---16--16-  -----|
g-15-------  ---------- -15-------x3-----|
a----------  ---------- ----------  -----|
e----------  ----<1>--- ----------  -----|
a----------  -0-2---<2> ----------  -0-2-|

e-----------------------------|
b-----------------------------|
g-----------------------------|
a-----------------------------|
e-----0-1-4-0-2-3-2-1----<1>--|
a-0-1--1------2-3-2-1-0-1-----|

e------------------------------------|
b------------------------------------|
g------------------------------------|
a------------------------------------|
e-----0-1-4-0-2-3-2-1----<1>-2-3-2-1-|
a-0-1--1------2-3-2-1-0-1----2-3-2-1-|

e---------------------------------------|
b---------------------------------------|
g---------------------------------------|
a---------------------------------------|
e-----1-<1>-2-3-2-1-----1-<1>-2-3-2-1-0-|
a-0-1--1----2-3-2-1-0-1--1----2-3-2-1-0-|

e---------------------------------------------|
b---------------------------------------------|
g---------------------------------------------|
a---------------------------------------------|
e---------------------------------------------|
a-1-1-1-1--1-1--1-1-1-1--1-1-1b(4)r1-1-1--1-1-|

e-----------------------------------------------------------|
b-----------------------------------------------------------|
g-----------------------------------------------------------|
a-----------------------------------------------------------|
e-0-0-0-0--0-0--0-0-0-0--0-0---------0-0--0-0--0-0-0-0--0-0-|
a-1-1-1-1--1-1--1-1-1-1--1-1-1b(4)r1-1-1--1-1--1-1-1-1--1-1-|

e--------------------------------|
b--------------------------------|
g--------------------------------|
a--------------------------------|x2
e---------0-0--0-0--0-0-0-0--0-0-|
a-1b(4)r1-1-1--1-1--1-1-1-1--1-1-|

e-------------------------------------------------------------|
b-------------------------------------------------------------|
g-------------------------------------------------------------|
a-------------------------------------------------------------|
e-------------------------------------------------------------|
a-111111-000-000-111111-000-000-111111-000-000-111111-000-000-|

e-------------------------|
b-------------------------|
g----3--------------------|
a----7--------------------|x2
e----6--------------------|
a-1----000-000-1--000-000-|

e-----17---  ---------- -----17---  -----|
b---16--16-x6---------- ---16--16-  -----|
g-15-------  ---------- -15-------x3-----|
a----------  ---------- ----------  -----|
e----------  ----<1>--- ----------  -----|
a----------  -0-2---<2> ----------  -0-2-|

e-----17---  ---------- -----17---  ------------|
b---16--16-x6---------- ---16--16-  ------------|
g-15-------  ---------- -15-------x3------------|
a----------  ---------- ----------  ------------|
e----------  ----<1>--- ----------  ----------0-|
a----------  -0-2---<2> ----------  -0-2-1b(2)0-|

e---------------------------------|
b---------------------------------|
g---------------------------------|
a---------------------------------|x4
e-3-2-1-4-3-2-3-2-1-4-3-2-3-2-1-2-|
a-3-2-1-4-3-2-3-2-1-4-3-2-3-2-1-2-|

e---
b---
g---
a---
e-0-
a-0-
Tap to rate this tab
 
# A B C D E F G H I J K L M N O P Q R S T U V W X Y Z