Song name
# A B C D E F G H I J K L M N O P Q R S T U V W X Y Z

Whitechapel - Death Becomes Him tab

My first tab. Sounds right to me.

/=Slide Up
\=Slide Down
.=Palm Mute

Guitar 1 0:00-0:40
e|----------------------------------------|
b|----------------------------------------|
g|------------6---------------------------|
d|----6---6-----6----6-----6--------------|
a|--0---0----------0-----0----------------|
e|4---------4----------4------------------|
a|----------------------------------------|

Guitar 2+3 0:08-0:24
e|----------------------------------------|
b|----------------------------------------|
g|----------------------------------------|
d|----------------------------------------|
a|7---------------------------------------|
e|x---------------------0-2---------------|
a|5---------------------0-2---------------|
                        .

Guitar 2+3 0:23-0:40
e|----------------------------------------|
b|----------------------------------------|
g|----------------------------------------|
d|----------------------------------------|
a|----------------------------------------|
e|2-2----2-2----2-2----44-4-44------------|
a|2-2----2-2----2-2----44-4-44------------|
  . .    . .    . .    .. . ..

Guitar 1+2+3 0:41-1:11
e|---------------------|------------------|
b|---------------------|------------------|
g|1st 3 Times----------|4th Time----------|
d|6--7--------7--77----|------------------|
a|x--x--------x--xx----|------------------|
e|4--5--------5--55----|22222222555502----|
a|-00-00000000-00------|22222222555502----|
   .. ........ ..                   .

Guitar 1+2+3 1:12-1:27
e|----------------------------------------|
b|----------------------------------------|
g|----------------------------------------|
d|----------------------------------------|
a|---------------4------------------------|
e|--5--5--5--5--5-------------------------|
a|44-44-44-44--4--------------------------|

Guitar 1+2 1:28-1:58(Not sure about Guitar 3)
e|----------------------------------------|
b|----------------------------------------|
g|----------------------------------------|
d|11-------11\9--9--7--------7/-----------|
a|x---------x-x--x--x--------x------------|
e|9---------9\7--7--5--------5/-----------|
a|----------------------------------------|

Guitar 1+2+3 1:59-Fade Out
e|----------------------------------------|
b|----------------------------------------|
g|----------------------------------------|
d|6--7--------7--77-----------------------|
a|x--x--------x--xx-----------------------|
e|4--5--------5--55-----------------------|
a|-00-00000000-00-------------------------|
Tap to rate this tab
# A B C D E F G H I J K L M N O P Q R S T U V W X Y Z