Song name
# A B C D E F G H I J K L M N O P Q R S T U V W X Y Z

Whitechapel - Of Legions tab

Whitechapel
Album: This Is Exile (2008)
Tuning: A, E, A, D, G, B, E

Gtr 1, 2 & 3
|-------------------------------------------|
|-------------------------------------------|
|-------------------------------------------|
|-------------------------------------------|  4 times
|-------------------------------------------|
|-4-4--4-4--4-4-4-4-4-4--4-4--4-4--4-4--4-4-|
|-4-4--4-4--4-4-4-4-4-4--4-4--4-4--4-4--4-4-|
PM=========================================

|-------------------------------------------|
|-------------------------------------------|
|-------------------------------------------|
|-------------------------------------------|
|-------------------------------------------|
|--2-2----2-2-------------------------------|
|--2-2----2-2-------------------------------|
PM===========

Let ring.
Gtr 1 & 2
|---------------------------------------------------|
|---------------------------------------------------|
|---------------------------------------------------|
|---------------------------------------------------|  4 times
|---------------------------------------------------|
|--2-2--2-2--2-2-2-2-2-2--2-2--2-2--2-2--2-2--------|
|--2-2--2-2--2-2-2-2-2-2--2-2--2-2--2-2--2-2--------|
PM ==========================================

|--------------------------------------------------------|
|--------------------------------------------------------|
|--------------------------------------------------------|
|--9----16--9--10----17--16---9----16--9--10----14--13---|
|--------------------------------------------------------|
|--7----14--7---8----15--14---7----14--7---8----12--11---|
|--------------------------------------------------------|

|-------------------------------------------|
|-------------------------------------------|
|-------------------------------------------|
|-------------------------------------------|
|-------------------------------------------|
|--2-2----2-2-------------------------------|
|--2-2----2-2-------------------------------|
PM===========


|---------------------------------------------------|
|---------------------------------------------------|
|---------------------------------------------------|
|---------------------------------------------------|  4 times
|---------------------------------------------------|
|--2-2--2-2--2-2-2-2-2-2--2-2--2-2--2-2--2-2--------|
|--2-2--2-2--2-2-2-2-2-2--2-2--2-2--2-2--2-2--------|
PM ==========================================

|--------------------------------------------------------|
|--------------------------------------------------------|
|--------------------------------------------------------|
|--9----16--9--10----17--16---9----16--9--10----14--13---|
|--------------------------------------------------------|
|--7----14--7---8----15--14---7----14--7---8----12--11---|
|--------------------------------------------------------|

Gtr 1
Let ring..
|-------------|
|-------------|
|-------------|
|-------------|
|-------------|
|----2--------|
|----2--------|

Gtr 2
|-------------|
|-------------|
|-------------|
|---9---------|
|-------------|
|---7---------|
|-------------|

Let ring..
Gtr 3
|-------------------------------------|
|-------------------------------------|
|-------------------------------------|
|-------------------------------------|
|-------------------------------------|
|--2-2--2-2--2--2-2--2-2--------------|
|--2-2--2-2--2--2-2--2-2--------------|
PM======================

|-------------|
|-------------|
|-------------|
|-------------|
|-------------|
|----2-2------|
|----2-2------|

|----------------------------------------------------------------------|
|----------------------------------------------------------------------|
|----------------------------------------------------------------------|
|----------------------------------------------------------------------|
|---------------------------------------0------------------------------|
|--0-0--0-0--0--0-0--0-0--0-0--0-0--0-0-0-0--0--0-0-0-0--0-0-----------|
|--1-1--1-1--1--1-1--1-1--1-1--1-1--1-1-1-1--1--1-1-1-1--1-1-----------|

Thats all :)

Enjoy.
Tap to rate this tab
# A B C D E F G H I J K L M N O P Q R S T U V W X Y Z