Song name
# A B C D E F G H I J K L M N O P Q R S T U V W X Y Z

Whitechapel - This Is Exile tab

Help us improve GuitareTab! Take a short survey!
                                  THIS IS EXILE
                           As recorded by Whitechapel
                       (From the 2008 Album THIS IS EXILE)

Words by Phil Bozeman

Music by Whitechapel
Transcribed by Patsyxcore

Gtr I (A E A D Gb B) - 'Right'
Gtr II (A E A D Gb B) - 'Left'
Gtr III (A E A D Gb B) - 'Center'
Gtr IV (A E A D Gb B) - 'Center'

 Intro
  Deathcore Q=238
  G5/G#
 4/4
  Gtr III
                                                    PM
  W          +W           +W           +W           Q  H.
|----------|------------|------------|------------|----------||
|----------|------------|------------|------------|----------||
|----------|------------|------------|------------|----------||
|-5--------|-(5)--------|-(5)--------|-(5)--------|----------||
|-5--------|-(5)--------|-(5)--------|-(5)--------|-5--------||
|-6--------|-(6)--------|-(6)--------|-(6)--------|-6--------||
|
| Gtr IV
|                                                   PM
| W          +W           +W           +W           Q  H.
|----------|------------|------------|------------|----------||
|----------|------------|------------|------------|----------||
|-7--------|-(7)--------|-(7)--------|-(7)--------|----------||
|-6--------|-(6)--------|-(6)--------|-(6)--------|-6--------||
|-5--------|-(5)--------|-(5)--------|-(5)--------|-5--------||
|----------|------------|------------|------------|----------||


   "Infinitude sets thy..."
    D#5
    S S S S S S S S S S S S S S S S   S S S S S S S S S S S S S S S S
||----------------------------------|---------------------------------|
||o---------------------------------|---------------------------------|
||----------------------------------|---------------------------------|
||----------6-6-6-6-6-6-6-6---------|-9-9-9-9-8-8-8-8-6-6-6-6-8-8-8-8-|
||o-6-6-6-6-----------------6-6-6-6-|---------------------------------|
||----------------------------------|---------------------------------|
|
|   PM-----------------------------------------------------------------
|   S S S S Q       S S E   S S E     Q       S S S S Q       S S E
||----------------------------------|---------------------------------|
||o---------------------------------|---------------------------------|
||----------------------------------|---------------------------------|
||----------------------------------|---------------------------------|
||o-1-1-1-1---------1-1-1---1-1-1---|---------1-1-1-1---------1-1-1---|
||--1-1-1-1---------1-1-1---1-1-1---|---------1-1-1-1---------1-1-1---|


  S S S S S S S S S S S S S S S S    S  S  S  S  S  S  S  S S S S S S S S S  4x
|---------------------------------|------------------------------------------||
|---------------------------------|-----------------------------------------o||
|---------------------------------|-11-11-11-11-10-10-10-10------------------||
|---------6-6-6-6-6-6-6-6---------|-------------------------9-9-9-9-8-8-8-8--||
|-6-6-6-6-----------------6-6-6-6-|-----------------------------------------o||
|---------------------------------|------------------------------------------||
|
|-----------------------------------------------------|
| S S E   Q       S S S S Q          S  S  E     S  S  E    Q       Q        4x
|---------------------------------|------------------------------------------||
|---------------------------------|-----------------------------------------o||
|---------------------------------|------------------------------------------||
|---------------------------------|------------------------------------------||
|-1-1-1-----------1-1-1-1---------|--1--1--1-----1--1--1--------------------o||
|-1-1-1-----------1-1-1-1---------|--1--1--1-----1--1--1----1-------2--------||


 Interlude
  E5      D#5E5      D#5  E5      D#5E5      D#5
  Gtr I
  W                       W
|-----------------------|-----------------------||
|-----------------------|-----------------------||
|-----------------------|-----------------------||
|-----------------------|-----------------------||
|-----------------------|-----------------------||
|-----------------------|-----------------------||
|
| Gtr II
| PM----|    PM----|      PM----|    PM----|
| S S S S Q  S S S S Q    S S S S Q  S S S S Q
|-----------------------|-----------------------||
|-----------------------|-----------------------||
|-----------------------|-----------------------||
|-----------------------|-----------------------||
|-2-2-2-2-1--2-2-2-2-1--|-2-2-2-2-1--2-2-2-2-1--||
|-2-2-2-2-1--2-2-2-2-1--|-2-2-2-2-1--2-2-2-2-1--||


    E5      D#5E5      D#5  E5      D#5E5      D#5
    PM----|    PM----|      PM----|    PM----|
    S S S S Q  S S S S Q    S S S S Q  S S S S Q
||------------------------|-----------------------|
||o-----------------------|-----------------------|
||------------------------|-----------------------|
||------------------------|-----------------------|
||o-2-2-2-2-1--2-2-2-2-1--|-2-2-2-2-1--2-2-2-2-1--|
||--2-2-2-2-1--2-2-2-2-1--|-2-2-2-2-1--2-2-2-2-1--|
|
|   PM----|    PM----|      PM----|    PM----|
|   S S S S Q  S S S S Q    S S S S Q  S S S S Q
||------------------------|-----------------------|
||o-----------------------|-----------------------|
||------------------------|-----------------------|
||------------------------|-----------------------|
||o-2-2-2-2-1--2-2-2-2-1--|-2-2-2-2-1--2-2-2-2-1--|
||--2-2-2-2-1--2-2-2-2-1--|-2-2-2-2-1--2-2-2-2-1--|


  N.C.    A#/N.C.    B/D# N.C.    A#/N.C.    B/D#
  PM----|    PM----|      PM----|    PM----|
  S S S S Q  S S S S Q    S S S S Q  S S S S Q
|-----------------------|------------------------||
|-----------------------|-----------------------o||
|-----------------------|------------------------||
|---------8----------9--|---------8----------9---||
|---------5----------6--|---------5----------6--o||
|-1-1-1-1----1-1-1-1----|-1-1-1-1----1-1-1-1-----||
|
| PM----|    PM----|      PM----|    PM----|
| S S S S Q  S S S S Q    S S S S Q  S S S S Q
|-----------------------|------------------------||
|-----------------------|-----------------------o||
|-----------------------|------------------------||
|-----------------------|------------------------||
|-----------------------|-----------------------o||
|-1-1-1-1-1--1-1-1-1-1--|-1-1-1-1-1--1-1-1-1-1---||


 "This is exile, we are..."
  E5      D#5E5      D#5  A#/E5  D#5B/D#
  PM----|    PM----|         PM|
  S S S S Q  S S S S Q    Q  E E Q  Q
|-----------------------|--------------|
|-----------------------|--------------|
|-----------------------|--------------|
|-----------------------|-8---------9--|
|-2-2-2-2-1--2-2-2-2-1--|-5--2-2-1--6--|
|-2-2-2-2-1--2-2-2-2-1--|----2-2-1-----|
|
| PM----|    PM----|         PM|
| S S S S Q  S S S S Q    Q  E E Q  Q
|-----------------------|--------------|
|-----------------------|--------------|
|-----------------------|--------------|
|-----------------------|-8---------9--|
|-2-2-2-2-1--2-2-2-2-1--|-5--2-2-1--6--|
|-2-2-2-2-1--2-2-2-2-1--|----2-2-1-----|


  E5      D#5E5      D#5  A#/E5  D#5B/D#
  PM----|    PM----|         PM|
  S S S S Q  S S S S Q    Q  E E Q  Q
|-----------------------|----------------|
|-----------------------|----------------|
|-----------------------|----------------|
|-----------------------|-8---------9----|
|-2-2-2-2-1--2-2-2-2-1--|-5--2-2-1--6----|
|-2-2-2-2-1--2-2-2-2-1--|----2-2-1-------|
|
| PM----|    PM----|         PM|
| S S S S Q  S S S S Q    Q  E E Q  Q
|-----------------------|----------------|
|-----------------------|----------------|
|-----------------------|----------------|
|-----------------------|-8---------9----|
|-2-2-2-2-1--2-2-2-2-1--|-5--2-2-1--6----|
|-2-2-2-2-1--2-2-2-2-1--|----2-2-1-------|


  E5      D#5E5      A#/D A#/E5     B/D#
  PM----|    PM----|         PM|
  S S S S Q  S S S S Q    Q  E E Q  Q
|-----------------------|--------------|
|-----------------------|--------------|
|-----------------------|--------------|
|-----------------------|-8---------9--|
|-2-2-2-2-1--2-2-2-2-1--|-5--2-2-1--6--|
|-2-2-2-2-1--2-2-2-2-1--|----2-2-1-----|
|
| PM----|    PM----|         PM|
| S S S S Q  S S S S Q    Q  E E Q  Q
|-----------------------|--------------|
|-----------------------|--------------|
|-----------------------|--------------|
|-----------------------|-8---------9--|
|-2-2-2-2-1--2-2-2-2-1--|-5--2-2-1--6--|
|-2-2-2-2-1--2-2-2-2-1--|----2-2-1-----|


  N.C.    A#/N.C.    B/D# N.C.    A#/N.C.    B/D#
  PM----|    PM----|      PM----|    PM----|
  S S S S Q  S S S S Q    S S S S Q  S S S S Q
|-----------------------|------------------------||
|-----------------------|------------------------||
|-----------------------|------------------------||
|---------8----------9--|---------8----------9---||
|---------5----------6--|---------5----------6---||
|-1-1-1-1----1-1-1-1----|-1-1-1-1----1-1-1-1-----||
|
| PM----|    PM----|      PM----|    PM----|
| S S S S Q  S S S S Q    S S S S Q  S S S S Q
|-----------------------|------------------------||
|-----------------------|------------------------||
|-----------------------|------------------------||
|---------8----------9--|---------8----------9---||
|---------5----------6--|---------5----------6---||
|-1-1-1-1----1-1-1-1----|-1-1-1-1----1-1-1-1-----||


 "You are the sacrifice..."
  G5                N.C.G5      N.C.  G5                N.C.G5      N.C.
  E E E E E E E E   E E E E E E E E   E E E E E E E E   E E E E E E E E
|-----------------|-----------------|-----------------|------------------|
|-----------------|-----------------|-----------------|------------------|
|-----------------|-7-7---------8-8-|-----------------|-7-7---------8-8--|
|-5-5-5-5-5-5-5-5-|-x-x-5-5-5-5-x-x-|-5-5-5-5-5-5-5-5-|-x-x-5-5-5-5-x-x--|
|-5-5-5-5-5-5-5-5-|-5-5-5-5-5-5-6-6-|-5-5-5-5-5-5-5-5-|-5-5-5-5-5-5-6-6--|
|-5-5-5-5-5-5-5-5-|-----5-5-5-5-----|-5-5-5-5-5-5-5-5-|-----5-5-5-5------|
|
| E E E E E E E E   E E E E E E E E   E E E E E E E E   E E E E E E E E
|-----------------|-----------------|-----------------|------------------|
|-----------------|-----------------|-----------------|------------------|
|-----------------|-7-7---------8-8-|-----------------|-7-7---------8-8--|
|-5-5-5-5-5-5-5-5-|-x-x-5-5-5-5-x-x-|-5-5-5-5-5-5-5-5-|-x-x-5-5-5-5-x-x--|
|-5-5-5-5-5-5-5-5-|-5-5-5-5-5-5-6-6-|-5-5-5-5-5-5-5-5-|-5-5-5-5-5-5-6-6--|
|-5-5-5-5-5-5-5-5-|-----5-5-5-5-----|-5-5-5-5-5-5-5-5-|-----5-5-5-5------|


  G5                N.C.G5      N.C.
  E E E E E E E E   E E E E E E E E
|-----------------|-----------------|
|-----------------|-----------------|
|-----------------|-7-7---------8-8-|
|-5-5-5-5-5-5-5-5-|-x-x-5-5-5-5-x-x-|
|-5-5-5-5-5-5-5-5-|-5-5-5-5-5-5-6-6-|
|-5-5-5-5-5-5-5-5-|-----5-5-5-5-----|
|
| E E E E E E E E   E E E E E E E E
|-----------------|-----------------|
|-----------------|-----------------|
|-----------------|-7-7---------8-8-|
|-5-5-5-5-5-5-5-5-|-x-x-5-5-5-5-x-x-|
|-5-5-5-5-5-5-5-5-|-5-5-5-5-5-5-6-6-|
|-5-5-5-5-5-5-5-5-|-----5-5-5-5-----|


  N.C.
  PM----|    PM----|      PM----|    PM----|
  S S S S Q  S S S S Q    S S S S Q  S S S S Q
|-----------------------|-----------------------|
|-----------------------|-----------------------|
|---------7----------8--|---------7----------8--|
|-----------------------|-----------------------|
|-----------------------|-----------------------|
|-5-5-5-5----5-5-5-5----|-5-5-5-5----5-5-5-5----|
|
| PM----|    PM----|      PM----|    PM----|
| S S S S Q  S S S S Q    S S S S Q  S S S S Q
|-----------------------|-----------------------|
|-----------------------|-----------------------|
|---------7----------8--|---------7----------8--|
|-----------------------|-----------------------|
|-----------------------|-----------------------|
|-5-5-5-5----5-5-5-5----|-5-5-5-5----5-5-5-5----|


  G5                 N.C.   G5       N.C.
   E E E E E E E E     E  E E E  E E  E E
|------------------|----------------------|
|------------------|----------------------|
|------------------|---7--7-----------8-8-|
|--5-5-5-5-5-5-5-5-|---x--x-5-5--5-5--x-x-|
|--5-5-5-5-5-5-5-5-|---5--5-5-5--5-5--6-6-|
|--5-5-5-5-5-5-5-5-|--------5-5--5-5------|
|
|  W                  +H         Q    Q
|------------------|----------------------|
|------------------|----------------------|
|-12---------------|-(12)-------12s==13---|
|--x---------------|-------------x----x---|
|-10---------------|-(10)-------10s==11---|
|------------------|----------------------|


  G5                 N.C.   G5      N.C.
   E E E E E E E E     E  E E E E E E E
|------------------|---------------------|
|------------------|---------------------|
|------------------|---7--7---------8-8--|
|--5-5-5-5-5-5-5-5-|---x--x-5-5-5-5-x-x--|
|--5-5-5-5-5-5-5-5-|---5--5-5-5-5-5-6-6--|
|--5-5-5-5-5-5-5-5-|--------5-5-5-5------|
|
|  W                  +H        H
|------------------|---------------------|
|------------------|---------------------|
|-10---------------|-(10)-------8--------|
|--x---------------|------------x--------|
|--8---------------|--(8)-------6--------|
|------------------|---------------------|


  G5                N.C.  G5      N.C.
  E E E E E E E E    E  E E E E E E E
|-----------------|-------------------|
|-----------------|-------------------|
|-----------------|--7--7---------8-8-|
|-5-5-5-5-5-5-5-5-|--x--x-5-5-5-5-x-x-|
|-5-5-5-5-5-5-5-5-|--5--5-5-5-5-5-6-6-|
|-5-5-5-5-5-5-5-5-|-------5-5-5-5-----|
|
| H       H         +W
|-----------------|-------------------|
|-----------------|-------------------|
|-7-------4-------|-(4)---------------|
|-x-------x-------|-------------------|
|-5-------2-------|-(2)---------------|
|-----------------|-------------------|


  N.C.                    F5      E5         Eb5
  PM----|    PM----|      PM----|    PM----|
  S S S S Q  S S S S Q    S S S S Q  S S S S Q
|-----------------------|-----------------------||
|-----------------------|-----------------------||
|---------7----------8--|-----------------------||
|-----------------------|-----------------------||
|-----------------------|-3-3-3-3-2--2-2-2-2-1--||
|-5-5-5-5----5-5-5-5----|-3-3-3-3-2--2-2-2-2-1--||
|
| PM----|    PM----|      PM----|    PM----|
| S S S S Q  S S S S Q    S S S S Q  S S S S Q
|-----------------------|-----------------------||
|-----------------------|-----------------------||
|---------7----------8--|-----------------------||
|-----------------------|-----------------------||
|-----------------------|-3-3-3-3-2--2-2-2-2-1--||
|-5-5-5-5----5-5-5-5----|-3-3-3-3-2--2-2-2-2-1--||


   Fill
    Eb/A
    S S S S Q  S S E S S E   Q  S S S S Q  S S E
||-------------------------|---------------------|
||o------------------------|---------------------|
||-------------------------|---------------------|
||--1-1-1-1----1-1-1-1-1-1-|----1-1-1-1----1-1-1-|
||o-0-0-0-0----0-0-0-0-0-0-|----0-0-0-0----0-0-0-|
||-------------------------|---------------------|
|
|   S S S S Q  S S E S S E   Q  S S S S Q  S S E
||-------------------------|---------------------|
||o------------------------|---------------------|
||-------------------------|---------------------|
||--1-1-1-1----1-1-1-1-1-1-|----1-1-1-1----1-1-1-|
||o-0-0-0-0----0-0-0-0-0-0-|----0-0-0-0----0-0-0-|
||-------------------------|---------------------|


                                    N.C.
  S S E Q  S S S S Q    S S E S S E Q  Q
|---------------------|----------------------||
|---------------------|---------------------o||
|---------------------|----------------------||
|-1-1-1----1-1-1-1----|-1-1-1-1-1-1----------||
|-0-0-0----0-0-0-0----|-0-0-0-0-0-0---------o||
|---------------------|-------------1--2-----||
|
| S S E Q  S S S S Q    S S E S S E Q  Q
|---------------------|----------------------||
|---------------------|---------------------o||
|---------------------|----------------------||
|-1-1-1----1-1-1-1----|-1-1-1-1-1-1----------||
|-0-0-0----0-0-0-0----|-0-0-0-0-0-0---------o||
|---------------------|-------------1--2-----||


 Tritone breakdown
  Get kicked Q=132
  Eb/AN.C.                Eb/A
 5/4                     4/4               5/4
                          Gtr III
                          PM------------------------------------------|
  E H       E E E E E     E E E E E E E E   E E E E E E S S S S S S S S   4x
|---------------------||------------------|-------------------------------||
|---------------------||o-----------------|------------------------------o||
|---------------------||------------------|-------------------------------||
|-1-------------------||------------------|-------------------------------||
|-0-------------------||o-0---0-0---0-0---|-0-0-0---0-0-0-0-0-0-0-0-0-0--o||
|-----------1---1-1---||--1---1-1---1-1---|-1-1-1---1-1-1-1-1-1-1-1-1-1---||
|
|                         Gtr IV
|                         PM------------------------------------------|
| E E E E E E H           E E E E E E E E   E E E E E E S S S S S S S S   4x
|---------------------||------------------|-------------------------------||
|---------------------||o-----------------|------------------------------o||
|---------------------||------------------|-------------------------------||
|-1-------------------||------------------|-------------------------------||
|-0-------------------||o-0---0-0---0-0---|-0-0-0---0-0-0-0-0-0-0-0-0-0--o||
|-----1-1---1---------||--1---1-1---1-1---|-1-1-1---1-1-1-1-1-1-1-1-1-1---||


  N.C.
 4/4
                             <
  E E E E E E E E   E Q.     H
|-----------------|---------------||
|-----------------|---------------||
|-----------------|---------20----||
|-----------------|---------------||
|-----------------|---------------||
|-1---1-1---1---1-|-1-------------||
|
| E E E E E E E E   E H..
|-----------------|---------------||
|-----------------|---------------||
|-----------------|---------------||
|-----------------|---------------||
|-----------------|---------------||
|-1---1-1---1---1-|-1-------------||


 Breakdown
  D5
   Q.     Q.    Q     +E   Q.    Q.     E    +Q    Q.     Q.
|------------------|----------------------|---------------------|
|------------------|----------------------|---------------------|
|-19-----20----19--|-(19)-20----19-----20-|-(20)--19-----20-----|
|------------------|----------------------|---------------------|
|------------------|----------------------|---------------------|
|------------------|----------------------|---------------------|
|
|  PM--|        PM---|           PM----|           PM--|      PM
|  Q   E  Q.    Q      E   Q.    Q   E  E    +Q    Q   E  Q   E
|------------------|----------------------|---------------------|
|------------------|----------------------|---------------------|
|------------------|----------------------|---------------------|
|--0---0--0-----0--|---0---0-----0---0--0-|--(0)---0---0--0---0-|
|--0---0--0-----0--|---0---0-----0---0--0-|--(0)---0---0--0---0-|
|--0---0--0-----0--|---0---0-----0---0--0-|--(0)---0---0--0---0-|


  D5
   Q.     Q.    Q     +E   Q.    Q.     E    +Q    Q.     Q.
|------------------|----------------------|--------------------||
|------------------|----------------------|--------------------||
|-17-----19----17--|-(17)-19----17-----19-|-(19)--15-----17----||
|------------------|----------------------|--------------------||
|------------------|----------------------|--------------------||
|------------------|----------------------|--------------------||
|
|  PM--|        PM---|           PM----|           PM--|
|  Q   E  Q.    Q      E   Q.    Q   E  E    +Q    Q   E  Q.
|------------------|----------------------|--------------------||
|------------------|----------------------|--------------------||
|------------------|----------------------|--------------------||
|--0---0--0-----0--|---0---0-----0---0--0-|--(0)---0---0--0----||
|--0---0--0-----0--|---0---0-----0---0--0-|--(0)---0---0--0----||
|--0---0--0-----0--|---0---0-----0---0--0-|--(0)---0---0--0----||


 "This world is ours and..."
  D5
          >                 >             >                 >
   Q.     Q.     Q     +E   Q.     Q.     E    +Q    Q.     Q.
|-------------------|-----------------------|---------------------|
|-------------------|-----------------------|---------------------|
|-20-----19-----20--|-(20)-19-----20-----19-|-(19)--20-----19-----|
|-------------------|-----------------------|---------------------|
|-------------------|-----------------------|---------------------|
|-------------------|-----------------------|---------------------|
|
|  PM-----------------------------------------------------------|
|  Q   E  E  Q   Q      E   E  Q   Q   E  E     Q    Q   E  Q   E
|-------------------|-----------------------|---------------------|
|-------------------|-----------------------|---------------------|
|-------------------|-----------------------|---------------------|
|--0---0--0------0--|---0---0------0---0--0-|--------0---0--0---0-|
|--0---0--0------0--|---0---0------0---0--0-|--------0---0--0---0-|
|--0---0--0------0--|---0---0------0---0--0-|--------0---0--0---0-|


  D5
          >                 >             >                 >
   Q.     Q.     Q     +E   Q.     Q.     E    +Q    Q.     Q.
|-------------------|-----------------------|---------------------||
|-------------------|-----------------------|---------------------||
|-17-----19-----17--|-(17)-19-----17-----19-|-(19)--15-----17-----||
|-------------------|-----------------------|---------------------||
|-------------------|-----------------------|---------------------||
|-------------------|-----------------------|---------------------||
|
|  PM-----------------------------------------------------------|
|  Q   E  E  Q   Q      E   E  Q   Q   E  E     Q    Q   E  Q   E
|-------------------|-----------------------|---------------------||
|-------------------|-----------------------|---------------------||
|-------------------|-----------------------|---------------------||
|--0---0--0------0--|---0---0------0---0--0-|--------0---0--0---0-||
|--0---0--0------0--|---0---0------0---0--0-|--------0---0--0---0-||
|--0---0--0------0--|---0---0------0---0--0-|--------0---0--0---0-||


 "The dead will never..."
  Speed up, nukka Q=238
  A#5
  Gtr III
   >
   W                                  +W
|----------------------------------|------------------------------------|
|----------------------------------|------------------------------------|
|-15-------------------------------|-(15)-------------------------------|
|----------------------------------|------------------------------------|
|----------------------------------|------------------------------------|
|----------------------------------|------------------------------------|
|
| Gtr I
|  W                                  +W
|----------------------------------|------------------------------------|
|----------------------------------|------------------------------------|
|----------------------------------|------------------------------------|
|--1-------------------------------|--(1)-------------------------------|
|--1-------------------------------|--(1)-------------------------------|
|--1-------------------------------|--(1)-------------------------------|
|
| Gtr II
|  S S S S S S S S S S S S S S S S     S  S S S S S S S S S S S S S S S
|----------------------------------|------------------------------------|
|----------------------------------|------------------------------------|
|----------------------------------|------------------------------------|
|----------------------------------|---4--4-4-4-3-3-3-3-----------------|
|----------2-2-2-2-1-1-1-1---------|--------------------2-2-2-2-1-1-1-1-|
|--1-1-1-1-----------------1-1-1-1-|------------------------------------|


  W                                   W
|-----------------------------------|----------------------------------|
|-----------------------------------|----------------------------------|
|-----------------------------------|----------------------------------|
|-----------------------------------|----------------------------------|
|-----------------------------------|----------------------------------|
|-----------------------------------|----------------------------------|
|
| E   H..                             W
|-----------------------------------|----------------------------------|
|-----------------------------------|----------------------------------|
|-----------------------------------|----------------------------------|
|-----------------------------------|----------------------------------|
|-1---------------------------------|----------------------------------|
|-1---------------------------------|----------------------------------|
|
| S S S   S S S S S S S S S S S S S   S S S S S S S S S S S S S S S S
|-----------------------------------|----------------------------------|
|-----------------------------------|----------------------------------|
|-----------------------------------|----------------------------------|
|-----------------------------------|-4-4-4-4-3-3-3-3------------------|
|-----------2-2-2-2-1-1-1-1---------|-----------------2-2-2-2-1-1-1-1--|
|-1-1-1---1-----------------1-1-1-1-|----------------------------------|


  A#5
  Gtr I
  S S S S S S S S S S S S S S S S   S S S S S S S S S S S S S S S S
|---------------------------------|---------------------------------|
|---------------------------------|---------------------------------|
|---------------------------------|---------------------------------|
|---------------------------------|-4-4-4-4-3-3-3-3-----------------|
|---------2-2-2-2-1-1-1-1---------|-----------------2-2-2-2-1-1-1-1-|
|-1-1-1-1-----------------1-1-1-1-|---------------------------------|
|
| Gtr II
| S S S S S S S S S S S S S S S S   S S S S S S S S S S S S S S S S
|---------------------------------|---------------------------------|
|---------------------------------|---------------------------------|
|---------------------------------|---------------------------------|
|---------------------------------|-4-4-4-4-3-3-3-3-----------------|
|---------2-2-2-2-1-1-1-1---------|-----------------2-2-2-2-1-1-1-1-|
|-1-1-1-1-----------------1-1-1-1-|---------------------------------|


  S S S S S S S S S S S S S S S S   S S S S S S S S S S S S S S S S
|---------------------------------|----------------------------------|
|---------------------------------|----------------------------------|
|---------------------------------|----------------------------------|
|---------------------------------|-4-4-4-4-3-3-3-3------------------|
|---------2-2-2-2-1-1-1-1---------|-----------------2-2-2-2-1-1-1-1--|
|-1-1-1-1-----------------1-1-1-1-|----------------------------------|
|
| S S S S S S S S S S S S S S S S   S S S S S S S S S S S S S S S S
|---------------------------------|----------------------------------|
|---------------------------------|----------------------------------|
|---------------------------------|----------------------------------|
|---------------------------------|-4-4-4-4-3-3-3-3------------------|
|---------2-2-2-2-1-1-1-1---------|-----------------2-2-2-2-1-1-1-1--|
|-1-1-1-1-----------------1-1-1-1-|----------------------------------|


  N.C.
  S S S S S S S S S S S S S S S S
|---------------------------------|
|---------------------------------|
|---------------------------------|
|---------------------------------|
|---------5-5-5-5-4-4-4-4---------|
|-4-4-4-4-----------------4-4-4-4-|
|
| S S S S S S S S S S S S S S S S
|---------------------------------|
|---------------------------------|
|---------------------------------|
|---------------------------------|
|---------2-2-2-2-1-1-1-1---------|
|-1-1-1-1-----------------1-1-1-1-|


                                    A#5E5 A#5F#5  A#5E5 A#5
  S S S S S S S S S S S S S S S S   Q  Q  Q  Q    Q  Q  Q  Q
|---------------------------------|-------------|--------------|
|---------------------------------|-------------|--------------|
|---------------------------------|-------------|--------------|
|-7-7-7-7-6-6-6-6-----------------|-1--2--1--4--|-1--2--1------|
|-----------------5-5-5-5-4-4-4-4-|-1--2--1--4--|-1--2--1------|
|---------------------------------|-1--2--1--4--|-1--2--1------|
|
| S S S S S S S S S S S S S S S S   Q  Q  Q  Q    Q  Q  Q  Q
|---------------------------------|-------------|--------------|
|---------------------------------|-------------|--------------|
|---------------------------------|-------------|--------------|
|-4-4-4-4-3-3-3-3-----------------|-1--2--1--4--|-1--2--1------|
|-----------------2-2-2-2-1-1-1-1-|-1--2--1--4--|-1--2--1------|
|---------------------------------|-1--2--1--4--|-1--2--1------|


  A#5
                   PM
  W                Q   H.
|----------------|-----------------||
|----------------|-----------------||
|----------------|-----------------||
|-1--------------|-----------------||
|-1--------------|-1---------------||
|-1--------------|-1---------------||
|
| PM--|    PM--|       PM-----|
| E E E Q  E E E   E E E  E E E Q
|----------------|-----------------||
|----------------|-----------------||
|----------------|-----------------||
|----------------|-----------------||
|-------1--------|-4-1----------2--||
|-1-1-1----1-1-1-|-----1--1-1-1----||


 "Vociferating hypocrites..."
  N.C.
  PM--|    PM--|       PM----|      PM--|    PM--|       PM----|
  E E E Q  E E E   E E E E E E Q    E E E Q  E E E   E E E E E E Q
|----------------|----------------|----------------|-----------------|
|----------------|----------------|----------------|-----------------|
|----------------|----------------|----------------|-----------------|
|----------------|-------------5--|----------------|-----------------|
|-------1--------|-4p1------------|-------1--------|-4p1---------5---|
|-0-0-0----0-0-0-|-----0-0-0-0----|-0-0-0----0-0-0-|-----0-0-0-0-----|
|
| PM--|    PM--|       PM----|      PM--|    PM--|       PM----|
| E E E Q  E E E   E E E E E E Q    E E E Q  E E E   E E E E E E Q
|----------------|----------------|----------------|-----------------|
|----------------|----------------|----------------|-----------------|
|----------------|----------------|----------------|-----------------|
|----------------|----------------|----------------|-----------------|
|-------1--------|-4p1---------2--|-------1--------|-4p1---------2---|
|-0-0-0----0-0-0-|-----0-0-0-0----|-0-0-0----0-0-0-|-----0-0-0-0-----|


  N.C.
  PM--|    PM--|       PM----|      PM--|         PM--|
  E E E Q  E E E   E E E E E E Q    S S E  Q   Q  S S E    E  E  Q   Q   Q
|----------------|----------------|---------------------|--------------------|
|----------------|----------------|---------------------|--------------------|
|----------------|----------------|-------16--15--------|-18-16-15--16--12---|
|----------------|-------------5--|--------x---x--------|--x--x--x---x---x---|
|-------1--------|-4p1------------|-------14--13--------|-16-14-13--14--10---|
|-0-0-0----0-0-0-|-----0-0-0-0----|-0-0-0---------0-0-0-|--------------------|
|
| PM--|    PM--|       PM----|      PM--|         PM--|
| E E E Q  E E E   E E E E E E Q    S S E  Q   Q  S S E    E  E  Q   Q   Q
|----------------|----------------|---------------------|--------------------|
|----------------|----------------|---------------------|--------------------|
|----------------|----------------|-------11--10--------|-13-11-10--11---7---|
|----------------|----------------|--------x---x--------|--x--x--x---x---x---|
|-------1--------|-4p1---------2--|--------9---8--------|-11--9--8---9---5---|
|-0-0-0----0-0-0-|-----0-0-0-0----|-0-0-0---------0-0-0-|--------------------|


  N.C.
  PM--|         PM--|                       PM--|         PM--|
  S S E  Q   Q  S S E    E  E  Q   Q   Q    S S E  Q   Q  S S E
|---------------------|-------------------|---------------------|
|---------------------|-------------------|---------------------|
|-------16--15--------|-18-16-15--16--12--|-------16--15--------|
|--------x---x--------|--x--x--x---x---x--|--------x---x--------|
|-------14--13--------|-16-14-13--14--10--|-------14--13--------|
|-0-0-0---------0-0-0-|-------------------|-0-0-0---------0-0-0-|
|
| PM--|         PM--|                       PM--|         PM--|
| S S E  Q   Q  S S E    E  E  Q   Q   Q    S S E  Q   Q  S S E
|---------------------|-------------------|---------------------|
|---------------------|-------------------|---------------------|
|-------11--10--------|-13-11-10--11---7--|-------11--10--------|
|--------x---x--------|--x--x--x---x---x--|--------x---x--------|
|--------9---8--------|-11--9--8---9---5--|--------9---8--------|
|-0-0-0---------0-0-0-|-------------------|-0-0-0---------0-0-0-|


  N.C.
                      PM--|         PM--|
   E  E  Q   Q   Q    S S E  Q   Q  S S E    E  E  Q   Q   Q
|-------------------|---------------------|-------------------|
|-------------------|---------------------|-------------------|
|-18-16-15--16--12--|-------16--15--------|-18-16-15--16--12--|
|--x--x--x---x---x--|--------x---x--------|--x--x--x---x---x--|
|-16-14-13--14--10--|-------14--13--------|-16-14-13--14--10--|
|-------------------|-0-0-0---------0-0-0-|-------------------|
|
|                     PM--|         PM--|
|  E  E  Q   Q   Q    S S E  Q   Q  S S E    E  E  Q   Q   Q
|-------------------|---------------------|-------------------|
|-------------------|---------------------|-------------------|
|-13-11-10--11---7--|-------11--10--------|-13-11-10--11---7--|
|--x--x--x---x---x--|--------x---x--------|--x--x--x---x---x--|
|-11--9--8---9---5--|--------9---8--------|-11--9--8---9---5--|
|-------------------|-0-0-0---------0-0-0-|-------------------|


  N.C.
  PM--|    PM--|       PM----|      PM--|    PM--|       PM----|
  E E E Q  E E E   E E E E E E Q    E E E Q  E E E   E E E E E E Q
|----------------|----------------|----------------|-----------------|
|----------------|----------------|----------------|-----------------|
|----------------|----------------|----------------|-----------------|
|----------------|-------------5--|----------------|-----------------|
|-------1--------|-4p1------------|-------1--------|-4p1---------5---|
|-0-0-0----0-0-0-|-----0-0-0-0----|-0-0-0----0-0-0-|-----0-0-0-0-----|
|
| PM--|    PM--|       PM----|      PM--|    PM--|       PM----|
| E E E Q  E E E   E E E E E E Q    E E E Q  E E E   E E E E E E Q
|----------------|----------------|----------------|-----------------|
|----------------|----------------|----------------|-----------------|
|----------------|----------------|----------------|-----------------|
|----------------|----------------|----------------|-----------------|
|-------1--------|-4p1---------2--|-------1--------|-4p1---------2---|
|-0-0-0----0-0-0-|-----0-0-0-0----|-0-0-0----0-0-0-|-----0-0-0-0-----|


  N.C.
  PM--|    PM--|       PM----|      PM--|    PM--|       PM----|
  E E E Q  E E E   E E E E E E Q    E E E Q  E E E   E E E E E E Q
|----------------|----------------|----------------|-----------------|
|----------------|----------------|----------------|-----------------|
|----------------|----------------|----------------|-----------------|
|----------------|-------------5--|----------------|-----------------|
|-------1--------|-4p1------------|-------1--------|-4p1---------5---|
|-0-0-0----0-0-0-|-----0-0-0-0----|-0-0-0----0-0-0-|-----0-0-0-0-----|
|
| PM--|    PM--|       PM----|      PM--|    PM--|       PM----|
| E E E Q  E E E   E E E E E E Q    E E E Q  E E E   E E E E E E Q
|----------------|----------------|----------------|-----------------|
|----------------|----------------|----------------|-----------------|
|----------------|----------------|----------------|-----------------|
|----------------|----------------|----------------|-----------------|
|-------1--------|-4p1---------2--|-------1--------|-4p1---------2---|
|-0-0-0----0-0-0-|-----0-0-0-0----|-0-0-0----0-0-0-|-----0-0-0-0-----|


  N.C.
  PM--|         PM--|
  S S E  Q   Q  S S E    E  E  Q   Q   Q
|---------------------|-------------------|
|---------------------|-------------------|
|-------16--15--------|-18-16-15--16--12--|
|--------x---x--------|--x--x--x---x---x--|
|-------14--13--------|-16-14-13--14--10--|
|-0-0-0---------0-0-0-|-------------------|
|
| PM--|         PM--|
| S S E  Q   Q  S S E    E  E  Q   Q   Q
|---------------------|-------------------|
|---------------------|-------------------|
|-------11--10--------|-13-11-10--11---7--|
|--------x---x--------|--x--x--x---x---x--|
|--------9---8--------|-11--9--8---9---5--|
|-0-0-0---------0-0-0-|-------------------|


  PM--|         PM--|
  S S E  Q   Q  S S E    E  E  Q   Q   Q
|---------------------|---------------------|
|---------------------|---------------------|
|-------16--15--------|-18-16-15--16--12----|
|--------x---x--------|--x--x--x---x---x----|
|-------14--13--------|-16-14-13--14--10----|
|-0-0-0---------0-0-0-|---------------------|
|
| PM--|         PM--|
| S S E  Q   Q  S S E    E  E  Q   Q   Q
|---------------------|---------------------|
|---------------------|---------------------|
|-------11--10--------|-13-11-10--11---7----|
|--------x---x--------|--x--x--x---x---x----|
|--------9---8--------|-11--9--8---9---5----|
|-0-0-0---------0-0-0-|---------------------|


  N.C.
  PM--|         PM--|
  S S E  Q   Q  S S E    E  E  Q   Q   Q
|---------------------|-------------------|
|---------------------|-------------------|
|-------16--15--------|-18-16-15--16--12--|
|--------x---x--------|--x--x--x---x---x--|
|-------14--13--------|-16-14-13--14--10--|
|-0-0-0---------0-0-0-|-------------------|
|
| PM--|         PM--|
| S S E  Q   Q  S S E    E  E  Q   Q   Q
|---------------------|-------------------|
|---------------------|-------------------|
|-------11--10--------|-13-11-10--11---7--|
|--------x---x--------|--x--x--x---x---x--|
|--------9---8--------|-11--9--8---9---5--|
|-0-0-0---------0-0-0-|-------------------|


  PM--|         PM--|
  S S E  Q   Q  S S E    E  E  Q   Q   Q
|---------------------|---------------------||
|---------------------|---------------------||
|-------16--15--------|-18-16-15--16--12----||
|--------x---x--------|--x--x--x---x---x----||
|-------14--13--------|-16-14-13--14--10----||
|-0-0-0---------0-0-0-|---------------------||
|
| PM--|         PM--|
| S S E  Q   Q  S S E    E  E  Q   Q   Q
|---------------------|---------------------||
|---------------------|---------------------||
|-------11--10--------|-13-11-10--11---7----||
|--------x---x--------|--x--x--x---x---x----||
|--------9---8--------|-11--9--8---9---5----||
|-0-0-0---------0-0-0-|---------------------||


 Octave part
  N.C.
  Q   Q   Q   Q     Q   Q   Q   Q     +H.       Q     Q  H.
|----------------|-----------------|---------------|-----------|
|----------------|-----------------|---------------|-----------|
|----16--15--12--|-18--16--15--12--|-(12)------13--|-12--9-----|
|-----x---x---x--|--x---x---x---x--|------------x--|--x--x-----|
|----14--13--10--|-16--14--13--10--|-(10)------11--|-10--7-----|
|----------------|-----------------|---------------|-----------|
|
| Q   Q   Q   Q     Q   Q   Q   Q     +H.       Q     Q  H.
|----------------|-----------------|---------------|-----------|
|----------------|-----------------|---------------|-----------|
|----------------|-----------------|---------------|-----------|
|-----9---8---5--|-11---9---8---5--|--(5)-------6--|--5--2-----|
|-----x---x---x--|--x---x---x---x--|------------x--|--x--x-----|
|-----9---8---5--|-11---9---8---5--|--(5)-------6--|--5--2-----|


    N.C.
    +Q    Q   Q   Q     Q   Q   Q   Q     +H.       Q     Q  H.     3x
||-------------------|-----------------|---------------|------------||
||o------------------|-----------------|---------------|-----------o||
||--(9)--16--15--12--|-18--16--15--12--|-(12)------13--|-12--9------||
||--------x---x---x--|--x---x---x---x--|------------x--|--x--x------||
||o-(7)--14--13--10--|-16--14--13--10--|-(10)------11--|-10--7-----o||
||-------------------|-----------------|---------------|------------||
|
|   +Q    Q   Q   Q     Q   Q   Q   Q     +H.       Q     Q  H.     3x
||-------------------|-----------------|---------------|------------||
||o------------------|-----------------|---------------|-----------o||
||-------------------|-----------------|---------------|------------||
||--(2)---9---8---5--|-11---9---8---5--|--(5)-------6--|--5--2------||
||o-------x---x---x--|--x---x---x---x--|------------x--|--x--x-----o||
||--(2)---9---8---5--|-11---9---8---5--|--(5)-------6--|--5--2------||


    D#5                                         E5
    Gtr III
    W          +W           +W           +H     Q  Q    4x
||-----------|------------|------------|----------------||
||o----------|------------|------------|---------------o||
||-----------|------------|------------|----------------||
||--1--------|-(1)--------|-(1)--------|-(1)----2-------||
||o-1--------|-(1)--------|-(1)--------|-(1)----2------o||
||--1--------|-(1)--------|-(1)--------|-(1)----2-------||
|
|   Gtr IV
|   W          +W           +W           +H     Q  Q    4x
||-----------|------------|------------|----------------||
||o----------|------------|------------|---------------o||
||-----------|------------|------------|----------------||
||--1--------|-(1)--------|-(1)--------|-(1)----2-------||
||o-1--------|-(1)--------|-(1)--------|-(1)----2------o||
||--1--------|-(1)--------|-(1)--------|-(1)----2-------||


 "This world is ours..."
                 E5      D#5E5      D#5  E5      D#5E5      D#5
                 PM----|    PM----|      PM----|    PM----|
  Wx2            S S S S Q  S S S S Q    S S S S Q  S S S S Q
|------------||------------------------|-----------------------|
|------------||o-----------------------|-----------------------|
|------------||------------------------|-----------------------|
|------------||------------------------|-----------------------|
|------------||o-2-2-2-2-1--2-2-2-2-1--|-2-2-2-2-1--2-2-2-2-1--|
|------------||--2-2-2-2-1--2-2-2-2-1--|-2-2-2-2-1--2-2-2-2-1--|
|
|                PM----|    PM----|      PM----|    PM----|
| Wx2            S S S S Q  S S S S Q    S S S S Q  S S S S Q
|------------||------------------------|-----------------------|
|------------||o-----------------------|-----------------------|
|------------||------------------------|-----------------------|
|------------||------------------------|-----------------------|
|------------||o-2-2-2-2-1--2-2-2-2-1--|-2-2-2-2-1--2-2-2-2-1--|
|------------||--2-2-2-2-1--2-2-2-2-1--|-2-2-2-2-1--2-2-2-2-1--|


  E5      D#5E5      D#5  N.C.
  PM----|    PM----|
  S S S S Q  S S S S Q    E E E E E E E E   4x
|-----------------------|-------------------||
|-----------------------|------------------o||
|-----------------------|-------------------||
|-----------------------|-------------------||
|-2-2-2-2-1--2-2-2-2-1--|------------------o||
|-2-2-2-2-1--2-2-2-2-1--|-2-2-2-2-2-2-2-2---||
|
| PM----|    PM----|
| S S S S Q  S S S S Q    E E E E E E E E   4x
|-----------------------|-------------------||
|-----------------------|------------------o||
|-----------------------|-------------------||
|-----------------------|-------------------||
|-2-2-2-2-1--2-2-2-2-1--|------------------o||
|-2-2-2-2-1--2-2-2-2-1--|-2-2-2-2-2-2-2-2---||


  D#5                                                        N.C.
  Gtr I
  PM---------------------------------------------------|
  E E  Q   E E  Q     E E  Q   E E  Q      E  E Q  E E  Q     E E E  E E E E E
|------------------|-------------------|-------------------|-------------------|
|------------------|-------------------|-------------------|-------------------|
|------------------|-------------------|-------------------|-------------------|
|------------------|-------------------|-------------------|-------------------|
|-1-1--1---1-1--1--|--1-1--1---1-1--1--|---1--1-1--1-1--1--|-------------------|
|-1-1--1---1-1--1--|--1-1--1---1-1--1--|---1--1-1--1-1--1--|--2-2-2--2-2-2-2-2-|
|
| Gtr II
| Q    Q   Q    Q     Q    Q   Q    Q     +H.           Q     Q   H.
|------------------|-------------------|-------------------|-------------------|
|------------------|-------------------|-------------------|-------------------|
|-----16--15---12--|-18---16--15---12--|-(12)----------13--|-12---9------------|
|------x---x----x--|--x----x---x----x--|----------------x--|--x---x------------|
|-----14--13---10--|-16---14--13---10--|-(10)----------11--|-10---7------------|
|------------------|-------------------|-------------------|-------------------|


    D#5
     PM-------------------------------------
     E  E  Q   E E  Q     E E  Q   E E  Q
||---------------------|-------------------|
||o--------------------|-------------------|
||---------------------|-------------------|
||---------------------|-------------------|
||o--1--1--1---1-1--1--|--1-1--1---1-1--1--|
||---1--1--1---1-1--1--|--1-1--1---1-1--1--|
|
|   +Q     Q   Q    Q     Q    Q   Q    Q
||---------------------|-------------------|
||o--------------------|-------------------|
||--(9)---16--15---12--|-18---16--15---12--|
||---------x---x----x--|--x----x---x----x--|
||o-(7)---14--13---10--|-16---14--13---10--|
||---------------------|-------------------|


                      N.C.
 ---------------|
    E  E Q  E E  Q     E E E  E E E E E   3x
|-------------------|---------------------||
|-------------------|--------------------o||
|-------------------|---------------------||
|-------------------|---------------------||
|---1--1-1--1-1--1--|--------------------o||
|---1--1-1--1-1--1--|--2-2-2--2-2-2-2-2---||
|
|  +H.           Q     Q   H.             3x
|-------------------|---------------------||
|-------------------|--------------------o||
|-(12)----------13--|-12---9--------------||
|----------------x--|--x---x--------------||
|-(10)----------11--|-10---7-------------o||
|-------------------|---------------------||


 Outro
  D#5                     D#5     E5 D#5     F#5
                          PM----|    PM----|
  W          +W           S S S S Q  S S S S Q
|----------|------------|-----------------------|
|----------|------------|-----------------------|
|----------|------------|-----------------------|
|-1--------|-(1)--------|---------2----------4--|
|-1--------|-(1)--------|-1-1-1-1-2--1-1-1-1-4--|
|-1--------|-(1)--------|-1-1-1-1-2--1-1-1-1-4--|
|
|                         PM----|    PM----|
| W          +W           S S S S Q  S S S S Q
|----------|------------|-----------------------|
|----------|------------|-----------------------|
|----------|------------|-----------------------|
|-1--------|-(1)--------|---------2----------4--|
|-1--------|-(1)--------|-1-1-1-1-2--1-1-1-1-4--|
|-1--------|-(1)--------|-1-1-1-1-2--1-1-1-1-4--|


  D#5     E5 D#5     E5   D#5
  PM----|    PM----|
  S S S S Q  S S S S Q    Q  H.
|-----------------------|----------*|
|-----------------------|----------*|
|-----------------------|----------*|
|---------2----------2--|-1--------*|
|-1-1-1-1-2--1-1-1-1-2--|-1--------*|
|-1-1-1-1-2--1-1-1-1-2--|-1--------*|
|
| PM----|    PM----|
| S S S S Q  S S S S Q    Q  H.
|-----------------------|----------*|
|-----------------------|----------*|
|-----------------------|----------*|
|---------2----------2--|-1--------*|
|-1-1-1-1-2--1-1-1-1-2--|-1--------*|
|-1-1-1-1-2--1-1-1-1-2--|-1--------*|


Duration Legend
---------------
W - whole; H - half; Q - quarter; E - 8th; S - 16th; T - 32nd; X - 64th; a - acciaccatura
+ - note tied to previous; . - note dotted; .. - note double dotted
Uncapitalized letters represent notes that are staccato (1/2 duration)
Irregular groupings are notated above the duration line
Duration letters will always appear directly above the note/fret number it represents the
duration for.  Duration letters with no fret number below them represent rests.  Multi-
bar rests are notated in the form Wxn, where n is the number of bars to rest for.  Low
melody durations appear below the staff

Tablature Legend
----------------
 h   - hammer-on
 p   - pull-off
 b   - bend
 pb  - pre-bend
 r   - bend release (if no number after the r, then release immediately)
 /\  - slide into or out of (from/to "nowhere")
 s   - legato slide
 S   - shift slide
  - natural harmonic
[n]  - artificial harmonic
n(n) - tapped harmonic
 ~   - vibrato
 tr  - trill
 T   - tap
 TP  - trem. picking
 PM  - palm muting
\n/  - tremolo bar dip; n = amount to dip
 \n  - tremolo bar down
 n/  - tremolo bar up
/n\  - tremolo bar inverted dip
 =   - hold bend; also acts as connecting device for hammers/pulls
 <>  - volume swell (louder/softer)
 x   - on rhythm slash represents muted slash
 o   - on rhythm slash represents single note slash

Misc Legend
-----------
 |  - bar
||  - double bar
||o - repeat start
o|| - repeat end
*|  - double bar (ending)
 :  - bar (freetime)
 $  - Segno
 &  - Coda
Tempo markers -  = BPM(8/16=s8/s16), where s8 = swing 8ths, s16 = swing 16ths
Related for This Is Exile tab