Guitaretab - guitar tabs
Song name
# A B C D E F G H I J K L M N O P Q R S T U V W X Y Z

Whitechapel - Somatically Incorrect tab

                somatically incorrect tab only part though sorry
                this song is in drop A 7 string guitar would help
                       here it is leave comments and rate!

b-bend
p-pull off
h-hammer on
~-let ring
t-tremolo pick
x-how many times parts played


intro
|--------------------------------------------------------------------------|
|--------------------------------------------------------------------------|
|--------------------------------------------------------------------------|
|--------------------------------------------------------------------------|
|--------------------------------------------------------------------------|
|--1--11111--1--1------1--11111--1--1--4--3--2--1--------------------------|
|--1--11111--1--1--2b--1--11111--1--1--4--3--2--1--------------------------|

|--------------------------------------------------------------------------|
|--------------------------------------------------------------------------|
|--------------------------------------------------------------------------|
|--------------------------------------------------------------------------|
|--------------------------------------------------------------------------|
|--11111--1--1------1--11111--1--1--4--3--2--1-----------------------------|
|--11111--1--1--2b--1--11111--1--1--4--3--2--1-----------------------------|

riff 1 x2
|--------------------------------------------------------------------------|
|--------------------------------------------------------------------------|
|--------------------------------------------------------------------------|
|--------------------------------------------------------------------------|
|--7t----------8t--7t----------6t--7t----------8t--7t----------6t----------|
|------5t--8t----------5t--8t----------5t--8t----------5t--8t--------------|
|--------------------------------------------------------------------------|

riff 2 x2
|--------------------------------------------------------------------------|
|--------------------------------------------------------------------------|
|--------------------------------------------------------------------------|
|--------------------------------------------------------------------------|
|--------------------------------------------------------------------------|
|--1--0~--1~--3~--1~--1--0~--1~--3~--1~------------------------------------|
|--1--0~--1~--3~--1~--1--0~--1~--3~--1~------------------------------------|


riff 3
|--------------------------------------------------------------------------|
|--------------------------------------------------------------------------|
|--------------------------------------------------------------------------|
|--------------------------------------------------------------------------|
|--------5t--8t--------4t--7t------5t--8t-------4t--7t---------------------|
|--1--0--------------------------------------------------------------------|
|--1--0----------000-----------0t----------000-----------------------------|
[ Tab from: http://www.guitaretab.com/w/whitechapel/177375.html ]
|--------------------------------------------------------------------------|
|--------------------------------------------------------------------------|
|--------------------------------------------------------------------------|
|--------------------------------------------------------------------------|
|--------------------------------------------------------------------------|
|-------8p5--7p4-------8p5--7p4------8p5--7p4--------8p5--7p4--------------|
|--000------------000------------0t------------000-------------------------|


|--------------------------------------------------------------------------|
|--------------------------------------------------------------------------|
|--------------------------------------------------------------------------|
|--------------------------------------------------------------------------|
|--------5t--8t--------4t--7t------5t--8t-------4t--7t---------------------|
|--1--0--------------------------------------------------------------------|
|--1--0----------000-----------0t----------000-----------------------------|


|--------------------------------------------------------------------------|
|--------------------------------------------------------------------------|
|--------------------------------------------------------------------------|
|--------------------------------------------------------------------------|
|--------------------------------------------------------------------------|
|-------8p5--7p4-------8p5--7p4------8p5--7p4--------8p5--7p4--------------|
|--000------------000------------0t------------000-------------------------|

solo riff x4
|--------------------------------------------------------------------------|
|---------------6~--6--7--6--2--4--4h6-------------------------------------|
|-----------3~-------------------------------------------------------------|
|--------------------------------------------------------------------------|
|--------------------------------------------------------------------------|
|--1--1--1--------------------------------1--11--11111-1--1----------------|
|--1--1--1--------------------------------1--11--11111-1--1----------------|

then some wierd breakdown intro
|--------------------------------------------------------------------------|
|--------------------------------------------------------------------------|
|--------------------------------------------------------------------------|
|--------------------------------------------------------------------------|
|--------------------------------------------------------------------------|
|--1t--find the rythem out urself to confusing to write down ha------------|
|--1t----------------------------------------------------------------------|


next part
|--------------------------------------------------------------------------|
|--------------------------------------------------------------------------|
|--------------------------------------------------------------------------|
|--------------------------------------------------------------------------|
|--------------------------------------------------------------------------|
|--0t--find the rythem out urself to confusing to write down ha------------|
|--1t----------------------------------------------------------------------|

                   thats all i have for you for now
             hope you enjoyed it leave comments and rate plzz
                                    :-)
Related for Somatically Incorrect tab
Advertisement will be closed in 10 seconds