Song name
# A B C D E F G H I J K L M N O P Q R S T U V W X Y Z

Whitechapel - To All That Are Dead tab

Help us improve GuitareTab! Take a short survey!
Whitechapel
To All That Are Dead
This Is Exile
Drop A 
7-String
P= pull off
H= Hammer on
- Jordan Formo

starting
|-------------------------------------------------------------------|
|-------------------------------------------------------------------|
|-------------------------------------------------------------------|
|-------------------------------------------------------------------| x2
|-6---------------6---------------6---------------------------------|
|-6-5-4-5-4-3-4-3-6-5-4-5-4-3-4-3-6-5-4-5-4-3-4-3-5-6-3-5-2-3-2-1-0-|
|-6-5-4-5-4-3-4-3-6-5-4-5-4-3-4-3-6-5-4-5-4-3-4-3-5-6-3-5-2-3-2-1-0-|

i am the one who is always comsuming

|------------------|
|------------------|
|------------------|
|------------------| x8
|-6----------------|
|-6-5-4-5-4-3-4-3--|
|-6-5-4-5-4-3-4-3--|


alternate pick all of this
|-------------------------|
|-------------------------|
|-------------------------|
|-------------------------| x2
|-------------------------|
|-------------------------|
|-6--5--1--2--6--5--1--2--|


i adore what i have become!
|-------------------------------|
|-------------------------------|
|-------------------------------|
|-------------------------------| x6
|-----3------------3---4--------|
|-1-3-1-3-1-0--1-3-1-3-2-4-1-3--|
|-1-3---3-1-0--1-3---3---4-1-3--|


|-----------------------------------------|
|-----------------------------------------|
|-----------------------------------------|
|-----------------------------------------| x2
|-----------------------------------------|
|------1--2--4--2--1-1------1--2--4--2-1--|
|-0h1h2-00-00-00-0-----0h1h2-00-00-00-0---|


|--------------------------------------------------|
|--------------------------------------------------|
|--------------------------------------------------|
|--------------------------------------------------| x2
|--------------------------------------------------|
|--------------------------------------------------|
|-3s6-6s4-1-2-3-2-1-2-3-2--3s6-6s4-1-2-3-2-1-2-3*--|

|--13s0--|

|-----------------------------------------|
|-----------------------------------------|
|-----------------------------------------|
|-----------------------------------------| x2
|-----------------------------------------|
|------1--2--4--2--1-1------1--2--4--2-1--|
|-0h1h2-00-00-00-0-----0h1h2-00-00-00-0---|

Pre-Solo

|-------------------------------------------------|
|-------------------------------------8-7-5-7-5-3-|
|-4-9-9s7~-6~--11-9-7-9-7-6-4-2-------------------|
|-x-x-xsx--x---x--x-x-x-x-x-x-x-4-5-2-------------|
|-2-7-7s5~-4~--9--7-5-7-5-4-2-0-x-x-x-------------|
|-------------------------------2-3-0-------------|
|-------------------------------------------------|

alternate pick all of this

|------------------------------------------------------------------|
|------------------------------------------------------------------|
|-11------12-11--------------------------11-12----11-12----------7-|
|---9----9-----9-12-11--11-10-12-8-9-11-9-----9-5------9s5s9-9-11--| x2
|----10-9-------------10-----9------------------------------9------|
|------------------------------------------------------------------|
|------------------------------------------------------------------|

Solo!

|------------14----------------------------------------|
|----------15--15--------------------------------------|
|--------16------16------------------------------------|
|------16----------16----------------------------------|
|-14h17--------------17p14-17s16-16s14-14s17-17s13s10--|
|------------------------------------------------------|
|------------------------------------------------------|

alternate pick all of this

|---------------------------------------19-18-16--16----------|
|-----------------------------------------------18--18-17-15--|
|-------------------------16-18-19-16-19----------------------|
|-----------------15-17-18------------------------------------|
|---------14-16-17--------------------------------------------|
|-13-15-16----------------------------------------------------|
|-------------------------------------------------------------|

                                             alternate pick

|------------------------------------------|--------------------|
|------------------------------------------|--------------------|
|-19-18-16-18-16-14-16-14------------------|-----18--18--18-19--|
|------------------------14-12-14-16-14-12-|---16--16--16-------|
|------------------------------------------|-14-----------------|
|------------------------------------------|--------------------|
|------------------------------------------|--------------------|

alternate pick

|------------------------------------------------------------|
|-------------------------17-19-20-17-19-15-17-14-15-14-12~--|
|-----------------16-18-19-----------------------------------|
|---------15-17-18-------------------------------------------|
|-14-16-17---------------------------------------------------|
|------------------------------------------------------------|
|------------------------------------------------------------|

Figure this out yourself

|--------------------------------|--------------|
|--------------------------------|--------------|
|--------------------------------|--------------|
|--------------------------------|--------------|
|-9-10-9-7-9~--------------------|-9-10-9-7-5~--|
|-9-10-9-7-9~-9-9-10-10-15-15-14-|-9-10-9-7-5~--|-1-1-1-|
|-9-10-9-7-9~-9-9-10-10-15-15-14-|-9-10-9-7-5~--|-2-2-2-|

Enjoy

- Jordan Formo
Related for To All That Are Dead tab