Song name
# A B C D E F G H I J K L M N O P Q R S T U V W X Y Z

Whitechapel - Death Becomes Him tab

                this is the Death Becomes Him tab.
                  it's a great tab please enjoy
                   this is is 7 string Drop A
                    can also be played on 6
                    string in Drop A#/sharp
                      dont forget to rate
                         and comment!


x - times played
~ - let ring
\ - slide down
/ - slide up


intro let notes ring.

lead

E|---------------------------------------------|-
B|---------------------------------------------|--
G|-----------------------6~--------------------|---
D|--------6~-----6~-----------6~-------6~------|---- x10
A|-----0~-----0~----0~-------------------------|---
E|--4~-----------------4~--------4-5~-----5~---|--
A|---------------------------------------------|-

rythem

E|------------------------------------|-
B|------------------------------------|--
G|------------------------------------|---
D|--6~--7~--6~--7~--6~--7~--6~--7~----|---- x 1
A|--4~--5~--4~--5~--4~--5~--4~--5~----|---
E|--4~--5~--4~--5~--4~--5~--4~--5~----|--
A|--4~--5~--4~--5~--4~--5~--4~--5~----|-

E|----------------------------------------------|-
B|----------------------------------------------|--
G|----------------------------------------------|---
D|----------------------------------------------|---- x 2
A|----------------------------------------------|---
E|--44-44--44--55-5-55--44-44--44--55-5-55------|--
A|--44-44--44--55-5-55--44-44--44--55-5-55------|-

lead and rythem

E|----------------------------------------------|-
B|----------------------------------------------|--
G|----------------------------------------------|---
D|----------------------------------------------|---- x 3
A|--6-----7-----------------7---7-7-------------|---
E|--4-4-4-4--4-4-4-4-4--4-4-4-4-4-4-------------|--
A|--4-4-4-4--4-4-4-4-4--4-4-4-4-4-4-------------|-

lead and rythem

E|-------------------------------------|-
B|-------------------------------------|--
G|-------------------------------------|---
D|-------------------------------------|---- x 1
A|----------------------------4-0------|---
E|----------------------------4-0------|--
A|--2-2-2-2-2-2-2-2--5-5-5-5--4-0------|-

lead and rythem

E|----------------------------------------------|-
B|----------------------------------------------|--
G|----------------------------------------------|---
D|----------------------------------------------|---- x 3
A|--6-----7-----------------7---7-7-------------|---
E|--4-4-4-4--4-4-4-4-4--4-4-4-4-4-4-------------|--
A|--4-4-4-4--4-4-4-4-4--4-4-4-4-4-4-------------|-

lead and rythem

E|-------------------------------------|-
B|-------------------------------------|--
G|-------------------------------------|---
D|-------------------------------------|---- x 1
A|----------------------------4-0------|---
E|----------------------------4-0------|--
A|--2-2-2-2-2-2-2-2--5-5-5-5--4-0------|-

lead and rythem

E|-------------------------------------|-
B|-------------------------------------|--
G|-------------------------------------|---
D|-------------------------------------|---- x 4
A|---------------------------------4---|---
E|------5-----5-----5-----5------5-----|--
A|--4-4---4-4---4-4---4-4----4-5-------|-

lead

E|-------------------------------------|-
B|-------------------------------------|--
G|-------------------------------------|---
D|--11~--11\9--9~-7--7~--7/12----------|---- x 4
A|-------------------------------------|---
E|---9~---9\7--7~-5--5~--5/10----------|--
A|-------------------------------------|-

rythem

E|-------------------------------------|-
B|-------------------------------------|--
G|-------------------------------------|---
D|-------------------------------------|---- x 4
A|-------------------------------------|---
E|-------------------------------------|--
A|--2222222222222222--0000000000000000-|-

lead and rythem
outro/end

E|----------------------------------------------|-
B|----------------------------------------------|--
G|----------------------------------------------|---
D|----------------------------------------------|---- x 12
A|--6-----7-----------------7---7-7-------------|---
E|--4-4-4-4--4-4-4-4-4--4-4-4-4-4-4-------------|--
A|--4-4-4-4--4-4-4-4-4--4-4-4-4-4-4-------------|-

                       thanks for checking out my tab
                        i hope it helped,dont forget
                           too rate and comment!
                                   :)

Tap to rate this tab
 
# A B C D E F G H I J K L M N O P Q R S T U V W X Y Z