Song name
# A B C D E F G H I J K L M N O P Q R S T U V W X Y Z

Whitechapel - Possession tab

                     This is Possession tabbed out im
                     fer sure its close so enjoy and,
                      its in drop A tuning 7 string
                       please rate and comment...



~ - let ring
h - hammer on
p - pull off
/ - slide
x - times played
b - bend


Intro

E|-------------------------------------------------|-
B|-------------------------------------------------|--
G|-------------------------------------------------|---
D|-------------------------------------------------|---- x 4
A|-------------------------------------------------|---
E|-------------------------------------------------|--
A|--3h4-111111111--3h4-1111111111111---------------|-

E|----------------|-
B|----------------|--
G|----------------|---
D|----------------|---- x 1
A|----------------|---
E|----------------|--
A|--3h4-111-------|-

let ring

E|-----------|
B|-----------|
G|-----------|
D|-----------|
A|-----------|
E|--1~-------|
A|--1~-------|
A|--1~-------|

Then this riff
E|------------------------------------------------|
B|------------------------------------------------|
G|--5---5h8p5-------5-------5---8-----------------|
D|--------------7-------7-------------------------|
A|----8-------8---8---8---8---8---8---------------|
E|------------------------------------------------|
A|------------------------------------------------|-
                                                     | x 3
E|------------------------------------------------|-
B|------------------------------------------------|
G|--11----11h14p11------------11----------5---8---|
D|---------------------13-----------13------------|
A|------------------------------------------8---8-|
E|-----13-----------13----13-----13----13---------|
A|------------------------------------------------|

Then this riff
E|------------------------------------------------|
B|------------------------------------------------|
G|--5---5h8p5-------5-------5---8-----------------|
D|--------------7-------7-------------------------|
A|----8-------8---8---8---8---8---8---------------|
E|------------------------------------------------|
A|------------------------------------------------|-
                                                     | x 1
E|------------------------------------------------|-
B|------------------------------------------------|
G|--11----11h14p11------------5----5h8p5----------|
D|---------------------13-------------------7-----|
A|-------------------------------8--------8---8---|
E|-----13-----------13----13----------------------|
A|------------------------------------------------|

pre riff
E|-------------------------------------|-
B|-------------------------------------|--
G|-------------------------------------|---
D|-------------------------------------|---- x 2
A|-------------------------------------|---
E|--5-1-5--6-5--8-5-8--9-8-------------|--
A|-------------------------------------|-

breakdown
E|-------------------------------------|-
B|-------------------------------------|--
G|-------------------------------------|---
D|-------------------------------------|---- x 1
A|------------------------------0------|---
E|--2-2----2--1---1---1---1---1--------|--
A|--2-2--2-2--1-1-1-1-1-1-1-1----------|-

E|--------------------------|-
B|--------------------------|--
G|--------------------------|---
D|--------------------------|---- x 1
A|--------------------1-----|---
E|--2---2---2---2---2-------|--
A|--2-2-2-2-2-2-2-2---------|-

E|---------------------------|-
B|---------------------------|--
G|---------------------------|---
D|---------------------------|---- x 1
A|--------------------0------|---
E|--1---1---1---1---1--------|--
A|--1-1-1-1-1-1-1-1----------|-

E|-----------------------------------------------------------------------|
B|-----------------------------------------------------------------------|
G|---------------------------------------------------333-----------------|
D|---222-------------666---------------------666--------------666--------|
A|---------------444-----444-------------444-----444------444-----444----|
E|-------444-666-------------666-444-666---------------------------------|
A|-----------------------------------------------------------------------|

E|-----------------------------------------------------------------------|
B|-----------------------------------------------------------------------|
G|---------------------------------------------------222-----------------|
D|---111-------------555---------------------555---------555-------------|
A|---------------333-----333-------------333-----333---------333---------|
E|-------333-555-------------555-333-555-------------------------555-----|
A|-----------------------------------------------------------------------|

E|-----------------------------------------------------------------------|
B|-----------------------------------------------------------------------|
G|---------------------------------------------------333-----------------|
D|---222-------------666---------------------666--------------666--------|
A|---------------444-----444-------------444-----444------444-----444----|
E|-------444-666-------------666-444-666---------------------------------|
A|-----------------------------------------------------------------------|

E|------------------------------------------------------------------|
B|------------------------------------------------------------------|
G|---------------------------------------------------222------------|
D|---111-------------555---------------------555---------555--------|
A|---------------333-----333-------------333-----333---------3------|
E|-------333-555-------------555-333-555----------------------------|
A|------------------------------------------------------------------|

E|----------------------------------------------------------|-
B|----------------------------------------------------------|--
G|----------------------------------------------------------|---
D|----------------------------------------------------------|---- x 2
A|--5---5---5---5---5--8--4---4-----4---4---4---4---4--7----|---
E|--2-2-2-2-2-2-2-2-2--5--1-1-1-1-1-1-1-1-1-1-1-1-1-1--4----|--
A|--2-2-2-2-2-2-2-2-2--5--1-1-1-1-1-1-1-1-1-1-1-1-1-1--4----|-

sick riff

E|--8-------9-------8------------------------------|-
B|--7-------8-------7------------------------------|--
G|-------------------------------------------------|---
D|----------------------------222-111--------------|---- x 4
A|-------------------------------------444-333-----|---
E|-----4-3-----4-3-----4-3-------------------------|--
A|-----4-3-----4-3-----4-3-------------------------|-

E|-------------------------------------------------------------|-
B|-------------------------------------------------------------|--
G|-------------------------------------------------------------|---
D|-------------------------------------------------------------|---- x 4
A|--7-5-7~--7-5-7~---7-5-8-7-5-7--------------------5----------|---
E|-----------------8--------------8-5-8~-8-5-8~-5-8---7-8-7----|--
A|-------------------------------------------------------------|-

E|-------------------------------------------------------|-
B|-------------------------------------------------------|--
G|-------------------------------------------------------|---
D|-------------------------------------------------------|----
A|--7---777777---7---777777---7---888---888888-----------|---
E|-------------------------------------------------------|--
A|----0--------0---0--------0---0-----0------------------|--
                                                          ----| x 2
E|-------------------------------------------------------|--
B|-------------------------------------------------------|--
G|-------------------------------------------------------|---
D|-------------------------------------------------------|----
A|--3---333333---3---333333---3-5-2-2-2---222222---------|---
E|-------------------------------------------------------|--
A|----0--------0---0--------0-----------0----------------|-

then
E|-------------------------------------------------------|-
B|-------------------------------------------------------|--
G|-------------------------------------------------------|---
D|-------------------------------------------------------|----
A|--3---333333---3---333333---3---555---555555-----------|---
E|-------------------------------------------------------|--
A|----0--------0---0--------0---0-----0------------------|--
                                                          ----| x 2
E|-------------------------------------------------------|--
B|-------------------------------------------------------|--
G|-------------------------------------------------------|---
D|-------------------------------------------------------|----
A|-------------------------------------------------------|---
E|--5---555555---5---555555---5-7-3-3-3---333333---------|--
A|----0--------0---0--------0-----------0----------------|-

Then another breakdown
E|--------------------------------------------|-
B|--------------------------------------------|--
G|--------------------------------------------|---
D|--------------------------------------------|---- x 4
A|--------0--------0--0-----0--------0--------|---
E|--0000000--0000000--0--0000--0000000--------|--
A|--0000000--0000000--0--0000--0000000--------|-

almost the same thing
E|----------------------------------------------------|-
B|----------------------------------------------------|--
G|----------------------------------------------------|---
D|----------------------------------------------------|---- x 1
A|--1~-12/--------0--------0--0-----0--------0--------|---
E|--1~------0000000--0000000--0--0000--0000000--------|--
A|--1~------0000000--0000000--0--0000--0000000--------|-

E|------------------------------------------------|-
B|------------------------------------------------|--
G|------------------------------------------------|---
D|------------------------------------------------|---- x 1
A|--------0--------0--0-----0--------0---1~--1~---|---
E|--0000000--0000000--0--0000--0000000---1~--1~---|--
A|--0000000--0000000--0--0000--0000000---1~--1~---|-

pre breakdown
E|---------------------------------------|-
B|---------------------------------------|--
G|---------------------------------------|---
D|---------------------------------------|---- x 1
A|---------------------------------------|---
E|---------------------------------------|--
A|--8-12-8-11b--888-11b--888-11b--999----|-

E|----------------------------------------|-
B|----------------------------------------|--
G|----------------------------------------|---
D|----------------------------------------|----
A|----------------------------------------|---
E|--------9---8---8---8---9---9---9-------|--
A|--0-0-0-8-0-7-0-7-0-7-0-8-0-8-0-8-------|--
                                           ----| x 2
E|----------------------------------------|--
B|----------------------------------------|--
G|----------------------------------------|---
D|----------------------------------------|----
A|----------------------------------------|---
E|--------9---8---8---------8--9---9---9--|--
A|--0-0-0-8-0-7-0-7---0-0-0-7--8-0-8-0-8--|-

Then back to same
Thing in the intro
E|-------------------------------------------------|-
B|-------------------------------------------------|--
G|-------------------------------------------------|---
D|-------------------------------------------------|---- x 4
A|-------------------------------------------------|---
E|-------------------------------------------------|--
A|--3h4-111111111--3h4-1111111111111---------------|-

E|----------------|-
B|----------------|--
G|----------------|---
D|----------------|---- x 1
A|----------------|---
E|----------------|--
A|--3h4-111-------|-
                       
Outro breakdown
E|----------------------------------------|-
B|----------------------------------------|--
G|----------------------------------------|---
D|----------------------------------------|----
A|----------------------------------------|---
E|--------9---8---8---8---9---9---9-------|--
A|--0-0-0-8-0-7-0-7-0-7-0-8-0-8-0-8-------|--
                                           ----| x 6
E|----------------------------------------|--
B|----------------------------------------|--
G|----------------------------------------|---
D|----------------------------------------|----
A|----------------------------------------|---
E|--------9---8---8---------8--9---9---9--|--
A|--0-0-0-8-0-7-0-7---0-0-0-7--8-0-8-0-8--|-
       

               Thats it hope you enjoyed it
                  please rate and comment
                            (:
Tap to rate this tab
# A B C D E F G H I J K L M N O P Q R S T U V W X Y Z