Song name
# A B C D E F G H I J K L M N O P Q R S T U V W X Y Z

Whitechapel - Alone In The Morgue tab

-------------------------------------------------------------------------------
			     Alone In The Morgue - Whitechapel
-------------------------------------------------------------------------------

Tabbed By : johnnythrasher5
e-mail: metalhead999@insightbb.com

Tuning: low to high 5 strings (A,E,A,D,G)

INTRO PART 1 (X2)
G|-------------------|-------------------|------------------|
D|-------------------|-------------------|------------------|
A|-------------------|-------------------|------------------|
E|-------------------|-------------------|------------------|
A|-0-----------------|-6-----------------|-3----------------|


G|-------------------|-------------------|------------------|
D|-------------------|-------------------|------------------|
A|-------------------|-------------------|------------------|
E|-------------------|----------2--------|------------------|
A|-0-----------------|-3-----------------|-0-------------0--|

INTRO PART 2
G|-------------------|-------------------|------------------|
D|-------------------|-------------------|------------------|
A|-------------------|-------------------|------------------|
E|-------------------|-------------------|------------------|
A|-3-----------------|-6-----------------|-0----------------|


G|-------------------|-------------------|-------------------|
D|-------------------|-------------------|-------------------|
A|-------------------|-------------------|-------------------|
E|-------------------|-------------------|---------5---------|
A|-0-----------------|-3-----------------|-6-----------------|

RIFF
G|-------------|-------------|-------|
D|-------------|-------------|-------|
A|-------------|-------------|-------|
E|-------------|-------------|-6~~~--|
A|-0--4--1--0--|-2--1--0--1--|-------|


FAST RIFF!
G|--------------------|-----------------------|
D|-------------(x4)---|-----------------------|
A|--------------------|---------------(x12)---|
E|--------------------|-----------------------|
A|-4p0-3p0-2p0-1p0----|-4-3-2-1-3-2-1-0-------|

RIFF 2 (X2)
G|--------------------|-----------------------|
D|--------------------|-----------------------|
A|--------------------|-----------------------|
E|--------------------|-----------------------|
A|-0------------------|-0---0---1---1---1-----|

G|--------------------|-----------------------|
D|--------------------|-----------------------|
A|--------------------|-----------------------|
E|--------------------|-----------------------|
A|-4------------------|-4---4---3---5---------|

RIFF 3 (X4)
G|-------------|-------------|
D|-------------|-------------|
A|-------------|-------------|
E|-------------|-------------|
A|-0--4--1--0--|-6--3--0-----|

RIFF 4 (x2)
G|--------------|------|
D|--------------|------|
A|--------------|------|
E|-----3-----4--|-5-6--|
A|-1-4---1-4----|------|

FILL (X16)
G|---------------------|
D|---------------------|
A|---------------------|
E|---------------------|
A|-1-------------------|

FAST RIFF 2 (X8)
G|--------------------------------------|
D|--------------------------------------|
A|--------------------------------------|
E|-5-------4-------5-------4------------|
A|---5h6p5---5p6p5---5h6p5---5h6p5------|


RIFF 5 (8)
G|------------------|-----------------|
D|------------------|-----------------|
A|------------------|-----------------|
E|------------------|-----------------|
A|-1-----3-----6----|-1-----3----7----|

THEN THE ENDING IS REAAL INSANLY FAST AND I CANNOT FIGURE IT OUT BUT ITS
NOT THAT IT PROBBALLY LAST ABOUT 2 SECANDS..

| /  slide up
| \  slide down
| h  hammer-on
| p  pull-off
| ~  vibrato
| +  harmonic
| x  Mute note
===============================================================================
Tap to rate this tab
# A B C D E F G H I J K L M N O P Q R S T U V W X Y Z