Song name
# A B C D E F G H I J K L M N O P Q R S T U V W X Y Z

Whitechapel - Reprogrammed To Hate tab

So heres my tab for the song. Be sure to watch my youtube video too!!!!
http://www.youtube.com/watch?v=2sH9sVJv6x4

It would mean alot if you subscribed as well!

Tuning: Drop A

Legend:
h=hammer on
p=pull off
p.h.=pinch harmonic
/=slide
*palm mute
^=bend


Intro
|-----------------------------------|
|-----------------------------------|
|-----------------------------------|
|-----------------------------------|
|-------0-0--000--00--000-000-000-0-|
|-7^-0--0-0--111--11--111-111-111-1-|

|------------------------------------------|
|------------------------------------------|
|------------------------------------------|
|------------------------------------------|
|-------0-0--000-0-000-000-0---------------|
|-7^-0--0-0--111-1-111-111-1--5h8--0--3p.h-|

|-------------------------------------------------------|
|-------------------------------------------------------|
|-------------------------------------------------------|
|-------------------------5-----------------------------|
|-0-0-0-000---000-000--0--5--5h6p5-3-5-5-5---6---8-6-5--|
|-1-1-1-111---111-111--0--5-5--------5-5---5---5--------|

|-----------------------------------|
|-----------------------------------|
|-----------------------------------|
|-----------------------------------|
|-------0-0--000--00--000-000-000-0-|
|-7^-0--0-0--111--11--111-111-111-1-|

|------------------------------------------|
|------------------------------------------|
|------------------------------------------|
|------------------------------------------|
|-------0-0--000-0-000-000-0---------------|
|-7^-0--0-0--111-1-111-111-1--5h8--0--3p.h-|

|-------------------------------------------------------|
|-------------------------------------------------------|
|-------------------------------------------------------|
|-------------------------------------------------------|
|-0-0-0-000---000-000--000-000-0--5-6---6---8-6-5-------|
|-1-1-1-111---111-111--111-111-1------5---5-------------|

|--------------------------------------------------------------|
|-11---10---8--------------------------------------------------|
|-X----X----X--------------------------------------------------|
|-8---7-----5--------------------------------------------------|
|---------------4--4-4-4--444-4-4-444-444-444-4-4~-4-4-4-444-4-|
|---------------5--5-5-5--555-5-5-555-555-555-5-5~-5-5-5-555-5-|


|-------5h6p5-----------|
|-------------6/8-------|
|-----------------------|
|-----7-----------------|
|-3/5-------------------|
|-----------------------|

repeat the last 2 scores 3 times


|-------------------------------------------------|
|-------------------------------------------------|
|-------------------------------------------------|
|-0~~~~~~~~---------------------------------------|
|-0~~~~~~~~---------------------------------------|
|-0~~~~~~~~---12-0-12-13-12-0--0-12~-0-12-13-12-0-|


|-----------------------------------|
|-----------------------------------|
|-----------------------------------|
|-----------------------------------|
|-------0-0--000--00--000-000-000-0-|
|-7^-0--0-0--111--11--111-111-111-1-|

|------------------------------------------|
|------------------------------------------|
|------------------------------------------|
|------------------------------------------|
|-------0-0--000-0-000-000-0---------------|
|-7^-0--0-0--111-1-111-111-1--5h8--0--3p.h-|

|-------------------------------------------------------|
|-------------------------------------------------------|
|-------------------------------------------------------|
|-------------------------5-----------------------------|
|-0-0-0-000---000-000--0--5--5h6p5-3-5-5-5---6---8-6-5--|
|-1-1-1-111---111-111--0--5-5--------5-5---5---5--------|

|-----------------------------------|
|-----------------------------------|
|-----------------------------------|
|-----------------------------------|
|-------0-0--000--00--000-000-000-0-|
|-7^-0--0-0--111--11--111-111-111-1-|

|------------------------------------------|
|------------------------------------------|
|------------------------------------------|
|------------------------------------------|
|-------0-0--000-0-000-000-0---------------|
|-7^-0--0-0--111-1-111-111-1--5h8--0--3p.h-|

|-------------------------------------------------------|
|-------------------------------------------------------|
|-------------------------------------------------------|
|-------------------------------------------------------|
|-0-0-0-000---000-000--000-000-0--5-6---6---8-6-5-------|
|-1-1-1-111---111-111--111-111-1------5---5-------------|


|----------------------------------------------|
|----------------------------------------------|
|----------------------------------------------|
|----------------------------------------------|
|-0--0000--0--1--0000--0-1--0000-0-1--0000--0--|
|-0--0000--0--1--0000--0-1--0000-0-1--0000--0--|


|---------------------------------------------------|
|---------------------------------------------------|
|---------------------------------------------------|
|---------------------------------------------------|
|-0-0000-0-0~-0000-0-0------------------------------|
|-1-1111-1-1~-1111-1-1--0-0-0-0--0-1~--0-0-0-0--0-0-|


|----------------------------------------------|
|----------------------------------------------|
|----------------------------------------------|
|----------------------------------------------|
|-0--0000--0--1--0000--0-1--0000-0-1--0000--0--|
|-0--0000--0--1--0000--0-1--0000-0-1--0000--0--|


|---------------------------------------------------|
|---------------------------------------------------|
|---------------------------------------------------|
|---------------------------------------------------|
|-0-0000-0-0~-0000-0-0------------------------------|
|-1-1111-1-1~-1111-1-1--0-0-0-0--0-1~--0-0-0-0--0-0-|


Solo
|-----------------6-8------------10^------------14-17-14-15-14-|
|-5p.h.---------------7-8-7-8-10-----11---11/13----------------|
|---------------------------------------12---------------------|
|----------7-8-8-----------------------------------------------|
|--------9-----------------------------------------------------|
|--------------------------------------------------------------|

|-----------------14^-------------14-15-17~-17p15p14h15p14h15h18--|
|-15*-----------------15-11-13-16---------------------------------|
|----15*-14*------------------------------------------------------|
|------------17*--------------------------------------------------|
|-----------------------------------------------------------------|
|-----------------------------------------------------------------|

|-18p17p15h17p15h17/22~~---13^-13^13^13^13-16^-16^-16^-16^-16^-16^-16~--|
|-----------------------------------------------------------------------|
|-----------------------------------------------------------------------|
|-----------------------------------------------------------------------|
|-----------------------------------------------------------------------|
|-----------------------------------------------------------------------|

|-------------------13-11-10h11p10-------------------------|
|----13----15----16----------------13-10~~-13-----10-13----|
|-14----14----14------------------------------10~-------9~-|
|----------------------------------------------------------|
|----------------------------------------------------------|
|----------------------------------------------------------|


|----------------------------------------------------------|
|----------------------------------------------------------|
|----------------------------------------------------------|X4
|----------------------------------------------------------|
|-0---0---1-----1-0---1--------0-0---1-----1-0---1---------|
|-0-0---0---1-0-1---0---1-0-0~-0---0---1-0-1---0---1-------|


then this is the really spooky part. just play this several times

|----------------------------------------------------------------------------|
|----------------------------------------------------------------------------|
|----------------------------------------------------------------------------|
|----10h12---10h12---10h12---10h12---10h12---10h12---10h13---10h13--10h13-12-|
|----------------------------------------------------------------------------|
|-0-0------0-------0-------0-------0-------0-------0-------0------0------0---|

the fours on this part are harmonic rakes.
just lay your finger barely over the top
of the fourth fret on each string, and
strum all harmonics together in a
simple sweeping motion
|---------4---------------4--------|
|----------4---------------4-------|
|-----------4---------------4------|
|------------4---------------4-----|
|-0--0-0------4--0--0--00-----4----|
|-1--1-1---------1--1--11----------|

thats played about 6 times. then back to this
|-----------------------------------|
|-----------------------------------|
|-----------------------------------|
|-----------------------------------|
|-------0-0--000--00--000-000-000-0-|
|-7^-0--0-0--111--11--111-111-111-1-|

|------------------------------------------|
|------------------------------------------|
|------------------------------------------|
|------------------------------------------|
|-------0-0--000-0-000-000-0---------------|
|-7^-0--0-0--111-1-111-111-1--5h8--0--3p.h-|

|-------------------------------------------------------|
|-------------------------------------------------------|
|-------------------------------------------------------|
|-------------------------5-----------------------------|
|-0-0-0-000---000-000--0--5--5h6p5-3-5-5-5---6---8-6-5--|
|-1-1-1-111---111-111--0--5-5--------5-5---5---5--------|

|-----------------------------------|
|-----------------------------------|
|-----------------------------------|
|-----------------------------------|
|-------0-0--000--00--000-000-000-0-|
|-7^-0--0-0--111--11--111-111-111-1-|

|------------------------------------------|
|------------------------------------------|
|------------------------------------------|
|------------------------------------------|
|-------0-0--000-0-000-000-0---------------|
|-7^-0--0-0--111-1-111-111-1--5h8--0--3p.h-|

|-------------------------------------------------------|
|-------------------------------------------------------|
|-------------------------------------------------------|
|-------------------------------------------------------|
|-0-0-0-000---000-000--000-000--000-000-----------------|
|-1-1-1-111---111-111--111-111--111-111-----------------|
Tap to rate this tab
 
# A B C D E F G H I J K L M N O P Q R S T U V W X Y Z