Whitechapel - Death Becomes Him tab

                           Artist - Whitechapel
                          Album - This Is Exile
                         Tabbed By - Ryan Workman

=Note=
Ive looked over the tabs (including the Guitar Pro's) The rhythm figures just          
giving the sound people are looking for.
Given the guitar pro tabs are based off the writen works, Im tryin to fix this for 
Im about 90% possitive.
So give me some feed back on this one. Tell me if you think the old ones are better and 
shut up if nessesary, Thanks.


x - times played
~ - let ring
\ - slide down
/ - slide up
* - Palm Muting



Lead
E|---------------------------------------------|---------|
B|---------------------------------------------|---------|
G|-----------------------6~--------------------|---------|
D|--------6~-----6~-----------6~-------6~------|---- x10-|
A|-----0~-----0~----0~-------------------------|---------|
E|--4~-----------------4~--------4-5~-----5~---|---------|
A|---------------------------------------------|---------|

Rhythm 1
E|---------------------------------------------|------|
B|---------------------------------------------|------|
G|---------------------------------------------|------|
D|---------------------------------------------|------| x4
A|--4--4--4--4-4--4-4----5---------------------|------|
E|--4--4--4--4-4--4-4--0-5---------------------|------|
A|--4--4--4--4-4--4-4--0-5---------------------|------|
                       *
Rhythm 2
E|---------------------------------------------|------|
B|---------------------------------------------|------|
G|---------------------------------------------|------|
D|---------------------------------------------|------| x4
A|---------------------------------------------|------|
E|--4-4---4-4---4-4---4-5--5--5-5--------------|------|
A|--4-4---4-4---4-4---4-5--5--5-5--------------|------|
    * *   * *   * *   * *  *  * *

All Guitars x8 E|------------------------------------||----------|| B|------------------------------------||----------|| G|------------------------------------||----------|| D|------------------------------------||----------|| A|--6-----7-----------------7---7-7-7-||-6-----7--|| E|--4-4-4-5-4-4-4-4-4-4-4-4-5-4-5-5-5-||-4-4-4-5--|| A|----4-4---4-4-4-4-4-4-4-4---4-------||---4-4----|| * * * * * * * * * * * * * End on 4th and 8th times ||------------------------------|| ||------------------------------|| ||------------------------------|| ||------------------------------|| ||----------------------------0-|| ||-------------------------4--0-|| ||-2-2-2-2-2-2-2-2-5-5-5-5-4--0-||
Rhythm Only E|-------------------------------------|---------| B|-------------------------------------|---------| G|-------------------------------------|---------| D|-------------------------------------|---- x 4-| A|---------------------------------4---|---------| E|------5-----5-----5-----5------5-----|---------| A|--4-4---4-4---4-4---4-4----4-5-------|---------| * * * * * * * * * Lead Guitar ||-Odd Back-Ground Effects-||
Lead E|-------------------------------------|---------| B|-------------------------------------|---------| G|-------------------------------------|---------| D|--11~--11\9--9~-7--7~--7/12\---------|---- x 4-| A|-------------------------------------|---------| E|---9~---9\7--7~-5--5~--5/10\---------|---------| A|-------------------------------------|---------|
All Guitars Untill Fade-Out E|---------------------------------------------| B|---------------------------------------------| G|---------------------------------------------| D|---------------------------------------------| A|--6-----7-----------------7---7-7-7-6-----7--| E|--4-4-4-5-4-4-4-4-4-4-4-4-5-4-5-5-5-4-4-4-5--| A|----4-4---4-4-4-4-4-4-4-4---4---------4-4----| * * * * * * * * * * * * *
Tap to rate this tab
 
# A B C D E F G H I J K L M N O P Q R S T U V W X Y Z