Whitechapel - Exalt tab

            This song is in Drop A 7 string but can be played
               in a six string if you tune to Drop A#. ill be
               doing the full song after this solo tab for all 
                  you guys. This Is pretty Damn Close!
                         Enjoy Whitechapel Fans!






Song : Exalt
Band : Whitechapel
Album : This Is Exile
Part : solo
Tune : Drop A

Riff Before the solo
|----------------------------|
|----------------------------|
|---11~--8~--9~--7b----------|
|----------------------------|  x2
|----------------------------|
|----------------------------|
|----------------------------|

solo
|-------------------------------------------------------------|
|-------------------------------------------------------------|
|-------------------------------------------------------------|
|--------------------------14-------16h17--16\12/14\9/11b-8---|
|------------16~--14h16h17----16h17---------------------------|
|-------14~---------------------------------------------------|
|-------------------------------------------------------------|

solo
|-------------------------------------------------------------|
|-----------------14~-14h15p14-----19b----19b----19b----19----|
|--------------15---------------16-----16-----16-----16-------|
|--14b--13--16------------------------------------------------| x1
|-------------------------------------------------------------|
|-------------------------------------------------------------|
|-------------------------------------------------------------|

solo
|------------------------------------------|
|------19\17-----17----17b----17--16~------|
|---16--------14----14-----14--------------|
|------------------------------------------| x1
|------------------------------------------|
|------------------------------------------|
|------------------------------------------|

Guitar 2 riff
|--------------------------------------------------|
|--------------------------------------------------|
|--------------------------------------------------|
|--4-------9~--------------------------------------|  x4
|--2~--1~--9~--10-10-9-9-7-7-6--6~-2~-5~--6-5-1----|
|--2~--1~--7~--10-10-9-9-7-7-6--6~-2~-5~--6-5-1----|
|--2~--1~------10-10-9-9-7-7-6--6~-2~-5~--6-5-1----|

================
Things to know!
================
x - times played
/ - slide up
\ - slide down
~ - let ring
b - bend
h - hammer on
p - pull off

                    Hope you Enjoyed! Rate & Comment!
                             Thanks Alot!
Tap to rate this tab
 
# A B C D E F G H I J K L M N O P Q R S T U V W X Y Z