Whitechapel - Messiahbolical tab

----------------------------------------------------------------
			     SONG NAME - Band Name
---------------------------------------------------------------
Tabbed by: MomentoMori16
Email: Johnny.mcnay@yahoo.com
 
Tuning: (A,E,A,D,G,B,E) 7 string



 Riff #1
|-------------|-------------------------|--------------|-------------|
|-------------|-------------------------|--------------|-------------|
|-------------|-------------------------|--------------|-------------|
|-------------|-------------------------|--------------|-------------|
|-3-2-0-2-0-3-|---------------------7---|--------------|-----7p0-8p0-|
|-3-2-0-2-0-3-|-8p5---8---8p5---8p5---5-|---5---8---8--|-5-----------|
|-3-2-0-2-0-3-|-----0---0-----0---------|-0---0---0----|---0---------|
                pm   .   .     .           .   .   .




Riff 2 (x2)
|---------------------------|
|---------------------------|
|---------------------------|
|---------------------------|
|-9999---------9999---------|
|------4-3-4-3------0-3-4-4-|
|------4-3-4-3------0-3-4-4-|
  pm    . . . .      . . . . 



Riff #3 
|-------------------------|-------------------------|
|-------------------------|-------------------------|
|-------------------------|-------------------------|
|-------------------------|-------------------------|
|---------------------3---|-----------------3p0-2p0-|
|-5p1---5---5p1---5p1-----|-5p1---5---5p1-----------|
|-----0---0-----0-------0-|-----0---0-----0---------|
pm    .   .     .               .   .     .



Riff #4 (X2)
|---------------------------|
|---------------------------|
|---------------------------|
|---------------------------|
|---------------------------|
|-7777-4-3-4-3-8888-0-3-4-4-|
|------4-3-4-3------0-3-4-4-|
pm     . . . .      . . . .




Then Riff #1



Riff #5
|--------------|-------------|------------|---------------|
|--------------|-------------|------------|---------------|
|--------------|-------------|------------|---------------|
|-6))----------|-6-----------|-6----------|-6-------------|
|-3))---6))----|-3----6------|-3----6-----|-3-----6-------|
|-------6))----|------6------|------6-----|-------6-------|
|-------3))----|------3------|------3-----|-------3-------|



Then Riff #1 Again


Then Riff #2 Again



Riff #6 
|--------------|-------------|-------------|-------------|
|--------------|-------------|-------------|-------------|
|--------------|-------------|-------------|-------------|
|--------------|-------------|-------------|-------------|
|-2------------|---2---5-4-2-|---2-5-4-2---|---2---5-4-2-|
|-2------------|-------------|-----------5-|-------------|
|-2------------|-2---2-------|-2---------0-|-2---2-------|



************************************

| /   slide up
| \   slide down
| h   hammer-on
| p   pull-off
| ~   vibrato
| +   harmonic
| x   Mute note
| b   Bend
| pb  Pre-bend
| br  Bend release
| pbr Pre-bend release
| brb Bend release bend

************************************
Tap to rate this tab
 
# A B C D E F G H I J K L M N O P Q R S T U V W X Y Z