Song name
# A B C D E F G H I J K L M N O P Q R S T U V W X Y Z

Whitechapel - I Dementia tab

                                Whitechapel
                                I, Dementia

So this is in drop G...pretty gnarly stuff:)
from top to bottom: (G,D,G,C,F,A)

                                 INTRO (repeat this 2x)
   A|-------------------------------------------------------------------|
   F|-------------------------------------------------------------------|
   C|--7p0-8p0-7p0-8p0---------------7p0-8p0-7p0-8p0--------------------|
   G|------------------7p0-8p0-----------------------8p0-7p0------------|
   D|--------------------------6h8p6-------------------------6-8-10-5---|
   G|-------------------------------------------------------------------|

   
   A|-------------------------------------------------------------------|
   F|--------------------------------9p0-10p0---------------------------|
   C|--7p0-8p0-7p0-8p0---------------------------------8p0-7p0-8p0------|
   G|------------------7p0-8p0----------------6-8-10-8------------------|
   D|--------------------------6h8p6------------------------------------|
   G|-------------------------------------------------------------------|


____________________________________________________________________________


   A|-------------------------------------------------------------------|
   F|-------------------------------------------------------------------|
   C|-------------------------------------------------------------------|
   G|-------------------------------------------------------------------|
   D|--00------0-----00------0-3-----0--1--0--1--0--1--0-----0---0-12\1-|
   G|--00------0-1-3-00------0---1-3-0--1--0--1--0--1--0-1-3-0---0-12\1-|
       **      *     **      *       *  *  *  *  *  *  *     *   *    
                                                                       
                      (REAPEAT THE NEXT TWO MEASURES 2x)
   A|-------------------------------------------------------------------| 
   F|-------------------------------------------------------------------|
   C|-------------------------------------------------------------------|
   G|-------------------------------------------------------------------|
   D|--0-5-0-6-0-5-0-6-0-1-0-----0-5-0-6-0-5-0-6-0-1-0---0-3------------|
   G|--0---0---0---0---0-----1-3-0---0---0---0---0-----1-0---1----------|
       *   *   *   *   *         *   *   *   *   *       *      
 
   A|-------------------------------------------------------------------|
   F|-------------------------------------------------------------------|
   C|-------------------------------------------------------------------|
   G|------------------------------7---8-----------------8---7---8------|
   D|--0-5-0-6-0-5-0-6-0-1-0-----0-5-0-6-0-1-0---0-3---0-6-0-5-0-6-0----|
   G|--0---0---0---0---0-----1-3-0---0---0-----1-0---1-0---0---0---0----|
       *   *   *   *   *         *   *   *       *     *   *   *   *

                      (REPEAT THE NEXT TWO MEASURES 2x)
   A|-------------------------------------------------------------------|
   F|-------------------------------------------------------------------|
   C|-------------------------------------------------------------------|
   G|--7-------1-------0---1---3-----7-------1-------0---1---3----------|
   D|--5-0-0-0-1-0-0-0-0-0-1-0-3-----5-0-0-0-1-0-0-0-0-0-1-0-3----------|
   G|----0-0-0-1-0-0-0-0-0-1-0-3-1-3---0-0-0-1-0-0-0-0-0-1-0-3-1-3------|
         * * *   * * *   *   *         * * *   * * *   *   *

   A|--------------------------------|------play this the 1st time------|
   F|--------------------------------|----------------------------------|
   C|--------------------------------|----------------------------------|
   G|--7-------1-------0---1---3-----|7-------1-------0-7/8---7---8---7-|
   D|--5-0-0-0-1-0-0-0-0-0-1-0-3-----|5-0-0-0-1-0-0-0-0-5/6-0-5-0-6-0-5-|
   G|----0-0-0-1-0-0-0-0-0-1-0-3-1-3-|--0-0-0-1-0-0-0-0-----0---0---0---|
         * * *   * * *   *   *         * * *   * * *       *   *   * 

   A|-----play this the 2nd time-----|
   F|--------------------------------|
   C|--------------------------------|
   G|--7-------1-------0---1---3-----|
   D|--5-0-0-0-1-0-0-0-0-0-1-0-3-----|
   G|----0-0-0-1-0-0-0-0-0-1-0-3-1-3-|
         * * *   * * *   *   *

                     (REAPEAT THE NEXT TWO MEASURES 2x)
   A|-------------------------------------------------------------------| 
   F|-------------------------------------------------------------------|
   C|-------------------------------------------------------------------|
   G|-------------------------------------------------------------------|
   D|--0-5-0-6-0-5-0-6-0-1-0-----0-5-0-6-0-5-0-6-0-1-0---0-3------------|
   G|--0---0---0---0---0-----1-3-0---0---0---0---0-----1-0---1----------|
       *   *   *   *   *         *   *   *   *   *       *      
 
   A|-------------------------------------------------------------------|
   F|-------------------------------------------------------------------|
   C|-------------------------------------------------------------------|
   G|------------------------------7---8-----------------8---7---8------|
   D|--0-5-0-6-0-5-0-6-0-1-0-----0-5-0-6-0-1-0---0-3---0-6-0-5-0-6-0----|
   G|--0---0---0---0---0-----1-3-0---0---0-----1-0---1-0---0---0---0----|
       *   *   *   *   *         *   *   *       *     *   *   *   *

    "Take me away"

                      (REPEAT THE NEXT TWO MEASURES 2x)
   A|-------------------------------------------------------------------|
   F|-------------------------------------------------------------------|
   C|-------------------------------------------------------------------|
   G|-------------------------------------------------------------------|
   D|--5/------------------5/------------------5/------------------5/---|
   G|----1~-0~-1-3--0-1-3----1~-0~-1-3--0-1-3----1~-0~-1-3--0-1-3-------|


   A|---------------------|
   F|---------------------|
   C|---------------------|
   G|------------7-8-7----|   
   D|------------5-6-5----|
   G|--1~-0~-1-3----------|


                    (REPEAT THE NEXT TWO MEASURES 2x)
   A|-------------------------------------------------------------------|
   F|-------------------------------------------------------------------|
   C|-------------------------------------------------------------------|
   G|--7-------1-------0---1---3-----7-------1-------0---1---3----------|
   D|--5-0-0-0-1-0-0-0-0-0-1-0-3-----5-0-0-0-1-0-0-0-0-0-1-0-3----------|
   G|----0-0-0-1-0-0-0-0-0-1-0-3-1-3---0-0-0-1-0-0-0-0-0-1-0-3-1-3------|
         * * *   * * *   *   *         * * *   * * *   *   *

   A|--------------------------------|------play this the 1st time------|
   F|--------------------------------|----------------------------------|
   C|--------------------------------|----------------------------------|
   G|--7-------1-------0---1---3-----|7-------1-------0-7/8---7---8---7-|
   D|--5-0-0-0-1-0-0-0-0-0-1-0-3-----|5-0-0-0-1-0-0-0-0-5/6-0-5-0-6-0-5-|
   G|----0-0-0-1-0-0-0-0-0-1-0-3-1-3-|--0-0-0-1-0-0-0-0-----0---0---0---|
         * * *   * * *   *   *         * * *   * * *       *   *   * 

   A|-----play this the 2nd time-----|
   F|--------------------------------|
   C|--------------------------------|
   G|--7-------1-------0---1---3-----|
   D|--5-0-0-0-1-0-0-0-0-0-1-0-3-----|
   G|----0-0-0-1-0-0-0-0-0-1-0-3-1-3-|
         * * *   * * *   *   *

   A|-------------------------------------------------------------------|
   F|--14-------15------14------12------14-------12-------14------------|
   C|--xx-(16x)-xx-(4x)-xx-(4x)-xx-(4x)-xx-(16x)-xx-(16x)-xx-(16x)------|
   G|--12-------13------12------10------12-------10-------12------------|
   D|-------------------------------------------------------------------|
   G|-------------------------------------------------------------------|

   
   A|-------------------------------------------------------------------|
   F|--15------14------12------14^------17^-----------------------------|
   C|--xx-(4x)-xx-(4x)-xx-(4x)-xx-(16x)-xx-(16x)------------------------|
   G|--13------12------10------12-------15------------------------------|
   D|-------------------------------------------------------------------|
   G|-------------------------------------------------------------------|
  
   
   A|-------------------------------------------------------------------|
   F|-----------9~-7-9-10-9h10p9-7-9-9p7h9p7-6--------------------------|
   C|----7-5-7---------------------------------8-5-7--------------------|
   G|------------------------------------------------7------------------|
   D|--5----------------------------------------------------------------|
   G|-------------------------------------------------------------------|
  

   A|-------------------------------------------------------------------|
   F|-------------------------------------------------------------------|
   C|----------Sorry don't know this spart ill work on it though--------|
   G|-------------------------------------------------------------------|
   D|-------------------------------------------------------------------|
   G|-------------------------------------------------------------------|
  

   A|-------------------------------------------------------------------|
   F|-------------------------------------------------------------------|
   C|-------------------------------------------------------------------|
   G|-------------------------------------------------------------------|
   D|--5-6-5-6-1-0-----5-6-5-6-0-1-0---0-3---7-8----------6-5-6---------|
   G|--------------1-3---------0-----1-0---1-----7-8-10-8---------------|
  

   A|-------------------------------------------------------------------|
   F|-------------------------------------------------------------------|
   C|-------------------------------------------------------------------|
   G|-------------------------------------------------------------------|
   D|--00-1-0-1-0-------5-00-1-0-1-0-------5----------------------------|
   G|--00-1-0-1-0-0-1-3---00-1-0-1-0-0-1-3------------------------------|
       ** * * * *         ** * * * *


   A|-------------------------------------------------------------------|
   F|--------------------------------9p0-10p0---------------------------|
   C|--7p0-8p0-7p0-8p0---------------------------------8p0-7p0-8p0------|
   G|------------------7p0-8p0----------------6-8-10-8------------------|
   D|--------------------------6h8p6------------------------------------|
   G|-------------------------------------------------------------------|
     (FADE OUT THE END)
Tap to rate this tab
# A B C D E F G H I J K L M N O P Q R S T U V W X Y Z