Song name
# A B C D E F G H I J K L M N O P Q R S T U V W X Y Z

Whitechapel - I Dementia tab

 THIS IS DROP G TUNING NOT DROP D!

Repeat 4 times! THIS is the real main melody thanks for checking it out :)
   
   A|-------------------------------------------------------------------|
   F|-------------------------------------------------------------------|
   C|--7p0-8p0-7p0-8p0---------------7p0-8p0-7p0-8p0--------------------|
   G|------------------7p0-8p0-----------------------8p0-7p0------------|
   D|--------------------------6h8p6-------------------------6-8-10-5---|
   G|-------------------------------------------------------------------|

   
   A|-------------------------------------------------------------------|
   F|--------------------------------9p0-10p0---------------------------|
   C|--7p0-8p0-7p0-8p0---------------------------------8p0-7p0-8p0------|
   G|------------------7p0-8p0----------------6-8-10-8------------------|
   D|--------------------------6h8p6------------------------------------|
   G|-------------------------------------------------------------------|
Tap to rate this tab
# A B C D E F G H I J K L M N O P Q R S T U V W X Y Z