Song name
# A B C D E F G H I J K L M N O P Q R S T U V W X Y Z

Whitechapel - Somatic Defilement tab

Whitechapel: The Somatic Defilement- Drop A 6 string (AEADF#B)

Intro:
B---------------|
F#--------------|
D---------------|
A---------------|
E---0-1-0-4-3-1-| x4
A---0-1-0-4-3-1-|

(Tremelo Picked)
B--------------------------------|
F#-------------------------------|
D--------------------------------|
A--------------------------3-----| x2
E------0-1---5-4-------0-1-------|
A---0------0-----0-1-0-----------|

B---------------|
F#--------------|
D---------------|
A---------------|
E---0-1-0-4-3-1-| x4
A---0-1-0-4-3-1-|

B-----------------------------------|
F#----------------------------------|
D-----------------------------------|
A-------------------3-----4---------|
E---0-1-0-4-3-1-0-1-1-1-0-2-4-3-0-1-|
A---0-1-0-4-3-1-0-1---1-0---4-3-0-1-|
    . . . . . . . .   . .   . . . .

Verse 1: x6
B--------------------------------------|
F#-------------------------------------|
D--------------------------------------|
A--------------------------------------|
E-------3----------4---3---------------|
A---1-1---1-4-3-1----1---0-3-0-4-3-1---|


B-------------------------------------|
F#------------------------------------|
D-------------------------------------|
A-------------------------------------|
E----------------------------6---2-5--|
A---0-0-3-0-4-3-0-4-0-3-4-0---0-------|

Break 1: x2
B--------------------------------------------------------------|
F#-------------------------------------------------------------|
D-----------------4-------4--4-3-1-3-----------------------1h3-|
A---------0h3h4p3-1-------1----------------------------4p3-----|
E--1-4-3-------------1------------------1-3-4------1h2---------|
A--1-4-3-------------1-111--------------1-3-4------------------|

B---------------------|
F#--------------------|
D------------1-3------|
A-----3-4-3-----------|
E-1-2-------4---------|
A---------------------|


Break 2: x2

B--------------7-6-4------------------|
F#----4-7-6-4---------7-6-4-----------|
D---4-----------------------6-4-3-----|
A---------------------------------4-3-| x3
E-------------------------------------|
A-------------------------------------|

B-------------------6-----7------11-14-|
F#----4-7---6-9-4-7---6-9---9-12-------|
D---4-----6----------------------------|
A--------------------------------------| x1
E--------------------------------------|
A--------------------------------------|

Pre Breakdown

B------------------------------------------------------------|
F#-----------------------------------------------------------|
D---------------------------------------------------1--------|
A-----------8-7---------------------4-3-------1-3-4---4-3----|
E---3-4-----6-5------3h4------1-3-4-2-1-----2-------------4--| x4
A---3-4-111------111-----111--1-3-4-----111------------------|

First 3 Times

B---------|
F#--------|
D---------|
A---------|
E---4-----|
A---4-111-|

4th Time

B-----------------|
F#----------------|
D-----------------|
A-----------------|
E---4-----1-----7-|
A---4-111-1-111-7-|


Breakdown
B-------------------------------|
F#------------------------------|
D-------------------------------|  x2
A-------------------------------|
E---1-1-1-1---111-111---1-1-1-1-|
A---1-1-1-1---111-111---1-1-1-1-|

Then (You Know)
B----------|
F#---------|
D----------|
A----------|
E--------0-|
A--------0-|


Verse 2:
B-----------------------------------------------|
F#----------------------------------------------|
D-----------------------------------------------|
A-----------------------------------4-----------| x8
E---1-1-1---4*---4*-1-2-<2B>-2-1-2--2--1-1-1----|
A---1-1-1------1----1-2------2-1-2-----1-1-1----|


Pre Breakdown 2
B----------------------------------------------------------------|
F#---------------------------------------------------------------|
D----------------------------------------------------------------|
A----------------------------------------------------------------|
E-----------------------------0---1-0-1-0-1-0-1-1--1-2-3-2-3-4-5-|
A---1-2--1-4--1-5--11-4-1-454-1---1-1-1-1-1-1-1-1--1-2-3-2-3-4-5-|

B---------------------------------------------------------|
F#--------------------------------------------------------|
D---------------------------------------------------------|
A---------------------------------------------------------|
E---------------------------------------------------------|
A----4-5--4-7--4-8--44-7-4-787----------------------------|


Breakdown 2
B------------------------------|
F#-----------------------------|
D------------------------------|
A------------------------------|
E---000000000-----000000-0-0-0-|
A---000000000-----000000-0-0-0-|

Outro Riff
B-------------------|
F#------------------|
D-------------------|
A-------------------|
E---8-7-5-7-5-4-----|
A----0-0-0-0-0-0----|

B----------------------------------------------8---|
F#------------------------------------------6------|
D-------------------------------------7--9---------|
A---------------5-7----5--------5--7---------------|
E---8-7-5-4-5-7------8---7-8-----------------------|
A----0-0-0-0-0-0-0--0-0-0-0-0--0--0--0--0--0--0----|

Harmony 
B------------------------------------------------12----
F#--------------------------------------------10-------|
D---------------------------------------10-12----------|
A-----------------8-10-------------8-10----------------|
E---12-10-8-7-8-10-----12-13-10-12---------------------|
A------------------------------------------------------|

B---------------------------------------------------------|
F#--------------------------------------------------------|
D----------------------------------10------------10-------|
A----12--------12-----------12-------------12-------------|
E--------12-----------12----------------------------------|
A---------------------------------------------------------|
Tap to rate this tab
# A B C D E F G H I J K L M N O P Q R S T U V W X Y Z