Guitaretab - guitar tabs
Song name
# A B C D E F G H I J K L M N O P Q R S T U V W X Y Z

Whitecross - Enough Is Enough tab

  Song:Enough Is Enough
  Band:Whitecross
  CD:Whitecross
  Copyright:c 1987 PURE METAL RECORDS
  Tabbed by Ed Morones

   INTRO:

  e------------------------------------------------|
  B-----9-9-10-10-9~~--7-7h8-8-7----------p.h.-----|PLAY
  G--9\-9-9--9--9-9~~7-7-7---7-7-----------7~~~-|2-|x's
  D--9\-9-9--9--9-9~~7-7-7---7-7---5---4-----------|
  A--7\-7------------5-----------0---0---0---------|
  E------------------------------------------------|


   VERSE:For the verses play the intro riff 2x's but end
   it the 2nd time with riff 1.
    RIFF 1:
  e-----------------------------|
  B-----------------------------|
  G--5-4---5-4---5-4---4-5-7-9\-|go to chorus from here.
  D--5-4-5-5-4-5-5-4-5-4-5-7-9\-|
  A------5-----5-----5----------|
  E-----------------------------|

   CHORUS:

  e---------------------------------------------------------|
  B---------------------------------------------------------|
  G--------p.h.7------p.h.6------6---------4---9\------p.h.-|
  D--------9b--7------9b--7------7-5-4---4-5-7-9\------9b---|
  A--0-0-0------0-0-0------0-0-0-------5-----5---0-0-0------|
  E---------------------------------------------------------|

[ Tab from: http://www.guitaretab.com/w/whitecross/151430.html ]
                                                 *w/lead fill
  e-------------------------------------------------------------|Hold this last
  B------------------------------------------------|chord for 4-|
  G--7------p.h.6------6---------------------4------------------|measures and
  D--7------9b--7------7-5-4---5-4---5-4---4-5-7-9--------------|use trem bar
  A---0-0-0------0-0-0-------5-----5-----5-----5-7--------------|with beat,let
  E----------------------------------------------0--------------|feed back.
   *I'll try to tab the fill and solo later.
    Play the verse and the chorus again.




   SOLO:


  e-------------------------------------------------------|
  B-------------------------------------------------------|
  G-------------------------------------------------------|
  D-pick sl.-7-------77----------5-2--7-----5-----4-------|
  A--x////---5-5-5-5-55--0-0-0-0-3-00---0-0---0-0---0-0-5-|
  E--x////------------------------------------------------|

  e-------------------------------------------------|
  B-------------------------------------------------|
  G-------------------------------------------------|
  D--5-7-------77----------5-2--7-----5-----4-------|
  A--3-5-5-5-5-55--0-0-0-0-3-00---0-0---0-0---0-0-5-|
  E-------------------------------------------------|

   BRIDGE:

  e---------------------------------------------------------------|
  B---------------------------------------------------------------|
  G---------------------------------------------------------------|
  D--7-----7-7-----7-5-----5-5-----5-7-----7-7-----7-5~~~~~~555~~~|
  A--5-555-5-5-555-5-3-333-3-3-333-3-5-555-5-5-555-5-3~~~~~~333~~~|
  E---------------------------------------------------------------|
    After the bridge play chorus again then fade out.
    I didn't write in where to palm mute notes,they can be heard
    on CD.

  Any Q's or com's email Ed at
  5150rocker@sbcglobal.net
Related for Enough Is Enough tab
Enough Is Enough chords by Whitecross