Song name
# A B C D E F G H I J K L M N O P Q R S T U V W X Y Z

Whitehorse - Out Like A Lion tab

Capo 4th fret

Chorus

e|--0----|--0----|--0----|--1----|--|
b|--1----|--0----|--1----|--1----|--|
g|--0----|--1----|--2----|--2----|--|
d|--2----|--2----|--2----|--3----|--|
a|--3----|--2----|--0----|--3----|--|
e|--x----|--0----|--x----|--1----|--|

Verse

e|--0----|--0----|--0--0--|--0--3--|--|
b|--1----|--0----|--1--1--|--1--0--|--|
g|--0----|--1----|--2--2--|--0--0--|--|
d|--2----|--0----|--2--3--|--2--0--|--|
a|--3----|--2----|--0--3--|--3--2--|--|
e|--3----|--0----|--x--x--|--3--3--|--|

Lyrics

I'm not yours
You are mine
Let that sink in
Like the Mary Rose

She went down
With a heavy load
But who is this fading flower?

Come to life
In the spring
I was shaking from your sting
But you should know
In like lamb
Out like a lion
I came in
like a lamb
Out like a lion

We grew up
So we were told
Time just leaves us
Out in the cold

But seasons change
I'm getting warm
A feline in mohair
Tap to rate this tab
 
# A B C D E F G H I J K L M N O P Q R S T U V W X Y Z