Song name
# A B C D E F G H I J K L M N O P Q R S T U V W X Y Z

Whitelight - The Man Who Stands Alone tab

The Man Who Stands Alone Tab by Whitelight

Title: The Man Who Stands Alone
Part of song:Intro
Tabbed by Lawrence Delanimati (LURKINGRAIDARS)

Guitar starts with very low (or heavy) wah effects

repeat

e||-------------------------------------------3----------3---2--h3---|
B||---------3-----------3-----------3-------3---3------3---3---------|
G||-------0-----0-----0-----0-----0-------0--------------------------|
D||------------------------------------------------------------------|
A||---2h3---------2h3---------2h3-----2h3----------------------------|
E||-----------------------------------------------0------------------|


e||-------------------------------------------3----------3---2-2h3p2p0-----|
B||---------3-----------3-----------3-------3---3------3---3-----------3---|
G||-------0-----0-----0-----0-----0-------0------------------------------0-|
D||------------------------------------------------------------------------|
A||---2h3---------2h3---------2h3-----2h3----------------------------------|
E||-----------------------------------------------0------------------------|

When going into the next repetition, wah effects starts to lighten up for the 
to the verse.


This is just the intro for 'The Man Who Stands Alone'
the rest will be here soon and ready to be viewed so no need to worry.

Enjoy!
Tap to rate this tab
# A B C D E F G H I J K L M N O P Q R S T U V W X Y Z