Guitaretab - guitar tabs
Song name
# A B C D E F G H I J K L M N O P Q R S T U V W X Y Z

Whitesnake - Best Years tab

-------------------------------------------------------------------------------
			     Best years- Whitesnake
-------------------------------------------------------------------------------
Tabbed by: BFMV_rocks
Email: jkrocks010@hotmail.co.uk
[ Tab from: http://www.guitaretab.com/w/whitesnake/117410.html ]
Tuning: standard
This is the intro to best years and I think itís pretty much correct but feel free to 
me any corrections
E|---------------------------------------------------------------------------|
B|------------------------------------15-------------------------------------|
G|-/9-12-9~~-/9-7----------/9-9-12-9--14b(16)-16-16r(14)-p12-----------------|
D|----------------9-7p5--------------------------------------14--------------|
A|----------------------7----------------------------------------------------|
E|---------------------------------------------------------------------------|

E|---------------------------------------------------------------------------|
B|---------------------------------------------------------------------------|
G|-7/9-9--9/11-11--11/12-12--12/14-14--14/16-16ó16/18-18ó18/19-19--19b(21)~~-|
D|---------------------------------------------------------------------------|
A|---------------------------------------------------------------------------|
E|---------------------------------------------------------------------------|


| / Slide up
| \ Slide down
| H hammer-on
| P pull-off
| ~ Vibrato
===============================================================================
Related for Best Years tab