Guitaretab - guitar tabs
Song name
# A B C D E F G H I J K L M N O P Q R S T U V W X Y Z

Whitesnake - Love Aint No Stranger tab

-----------------------------------------------------------------------
Love Aint No Stranger - Whitesnake
-----------------------------------------------------------------------
Tuning:Standard
| /  slide up
| \  slide down
| h  hammer-on
| p  pull-off
| ~  vibrato
| <>  harmonic
| x  Mute note
| w---|  Whammy Bar
| T  tap with picking hand

Played fast, donít rest during the breaks I accidentally marked.  
Guitar 2 plays intro 5 or so times, clean,


Guitar 1, light distortion,
e|--------------------------------------------------------------------|
B|--------------------------------------------------------------------|
G|--2b^^^^---4-6-6br-4-------------------9b^---T14~~~-----9-7h9-9~~---|
D|----------------------7-7/9-9~~~~~----------------------------------|
A|--------------------------------------------------------------------|
E|--------------------------------------------------------------------|
[ Tab from: http://www.guitaretab.com/w/whitesnake/177356.html ]
e|--------------------------------------------------------------------|
B|--------------------------------------------------------------------|
G|--7-6---------------------------------------------------------------|
D|------7-9-7-----------------------------------------7------7~-------|
A|------------9-7-5-7-5-4-5p4-----------------------------------------|
E|----------------------------7~~~-------------7-9-10---9-10----------|

e|----------------------------------------------------12b^^^^^--12~~~-|
B|------------------------------12-12b^^^r-----10-12------------------|
G|------7-9-7-9-11-9-11-8/11-14---------------------------------------|
D|--7-9---------------------------------------------------------------|
A|--------------------------------------------------------------------|
E|--------------------------------------------------------------------|

e|--12-12-------------------------------------------------------------|
B|--------12~~~~\\\-------12-15-17-17b^^--17b^--17b18r17~~---15-14~~\-|
G|--------------------------------------------------------------------|
D|--------------------------------------------------------------------|
A|--------------------------------------------------------------------|
E|--------------------------------------------------------------------|

e|--19b^^^^^--19b20r19-17----17---------------------------------------|
B|------------------------19----19-19b^^^^^^--------------------------|
G|--------------------------------------------------------------------|
D|--------------------------------------------------------------------|
A|--------------------------------------------------------------------|
E|--------------------------------------------------------------------|
Related for Love Aint No Stranger tab