Song name
# A B C D E F G H I J K L M N O P Q R S T U V W X Y Z

Whitesnake - Give Me More Time tab

Tabed by: H.E.L.L.I.O.N.
Email: janiel@windowslive.com

Artist: Whitesnake
Album: Slide It In
Title: Give Me More Time 

  INTRO
E|---------------------------------------------------|
H|-------------------------3----3--3--3--------------|
G|--5--------2----2--------2----2--2--0--------------|
D|--5--4b----2----2--5b----0----0--0--0----4--4--5\--|
A|-----------0----0----------------------------------|
E|------------------------------2--2--3----2--2--3\--|

E|---------------------------------------------------|
H|-------------------------3----3--3--3--------------|
G|--5--------2----2--------2----2--2--0--------------|
D|--5--4b----2----2--5b----0----0--0--0----4--4--5\--|
A|-----------0----0----------------------------------|
E|------------------------------2--2--3----2--2--3\--|

Enjoy it!


Tap to rate this tab
# A B C D E F G H I J K L M N O P Q R S T U V W X Y Z