Guitaretab - guitar tabs
Song name
# A B C D E F G H I J K L M N O P Q R S T U V W X Y Z

Whitesnake - Aint No Love In The Heart Of The City tab

Song: Ain't No Love In The Heart Of The City
Band: Whitesnake
Album: Snakebite EP
Guitarists: Mick Moody & Bernie Marsden

Tone wise for this track, if you are using a humbucker equipped guitar, use the middle 
selector
or
if you are using single coils, I recommend the neck pickup.
Go for a clean tone with some light reverb. A slow phaser does sound good on this track ;)

This song is basically just a chorus and a bridge just repeated in several ways.

Rock on! GezzyDiversion.

Intro
                          x 4
e|--------------------------|
b|--------------------------|
g|----------5---5-------7---|
d|--------5-----------7-----|
a|--0-5h7---------7/9-------|
e|--------------------------|

Chorus

|--------------------------|--------------------------|
|--------------------------|--------------------------|
|----------5---5-------7---|----------5---5-------7---|
|--------5-----------7-----|--------5-----------7-----|
|--0-5h7---------7/9-------|--0-5h7---------7/9-------|
|--------------------------|--------------------------|

|---------------------------------|--------------------------|
|-------------10---10----------12-|----------5---5-------7---|
|----------10---------------12----|--------5-----------7-----|
|--0-10h12------------12/14-------|--0-5h7---------7/9-------|
|---------------------------------|--------------------------|

|--------------------------|--------------------------|
|--------------------------|--------------------------|
|----------5---5-------7---|----------5---5-------7---|
|--------5-----------7-----|--------5-----------7-----|
|--0-5h7---------7/9-------|--0-5h7---------7/9-------|
|--------------------------|--------------------------|

|--------------5-----------|----5---------------------|
|---10---------6-----------|----5---------------------|
|---10---------5-----------|----5---------------------|
|---10---------7-----------|----7---------------------|
|---12---------5-----------|----7---------------------|
|--------------------------|--------------------------|

Break 0:46

Gtr.1
|--------------------------|--------------------------|
|--------------------------|--------------------------|
|----------5---5-------7---|----------5---5-------7---|
|--------5-----------7-----|--------5-----------7-----|
|--0-5h7---------7/9-------|--0-5h7---------7/9-------|
|--------------------------|--------------------------|
|
|Gtr.2
|-12----12-12----14--------|-12----12-12----14--------|
|-13----13-13----15--------|-13----13-13----15--------|
|-14----14-14----16--------|-14----14-14----16--------|
|--------------------------|--------------------------|
|--------------------------|--------------------------|
|--------------------------|--------------------------|

Gtr.1
|--------------------------|-------------------------|
|--------------------------|-------------------------|
|----------5---5-------7---|----------5--------------|
|--------5-----------7-----|--------5----------------|
|--0-5h7---------7/9-------|--0-5h7----------0-3-----|
|--------------------------|-------------0-3-----3-0-|
|
|Gtr.2
|-12----12-12----14--------|-12----12-12-------------|
|-13----13-13----15--------|-13----13-13-------------|
|-14----14-14----16--------|-14----14-14-------------|
|--------------------------|-------------------------|
|--------------------------|-------------------------|
|--------------------------|-------------------------|

Bridge 1:31

|-5--5------------------------5--5-5---5--------3--3-3---3----5--5-5---5-|
|-5--5----------5--5----------6--6-6---6--------3--3-3---3----5--5-5---5-|
|-5--5----------5--5----------7--7-7---7--------4--4-4---4----5--5-5---5-|
|-7--7----------5--5----------7--7-7---7--------5--5-5---5----7--7-7---7-|
|-7--7----------3--3----------5--5-5---5--------5--5-5---5----7--7-7---7-|
|-----------------------------------------------3--3-3---3----5--5-5---5-|
[ Tab from: http://www.guitaretab.com/w/whitesnake/187450.html ]
|-5--5------------------------5--5-5---5--------3--3-3---3----5--5-5-----|
|-5--5----------5--5----------6--6-6---6--------3--3-3---3----5--5-5---5-|
|-5--5----------5--5----------7--7-7---7--------4--4-4---4----5--5-5---5-|
|-7--7----------5--5----------7--7-7---7--------5--5-5---5----7--7-7---5-|
|-7--7----------3--3----------5--5-5---5--------5--5-5---5----7--7-7---3-|
|-----------------------------------------------3--3-3---3----5--5-5-----|

Chorus 2:00

|--------------------------|--------------------------|
|--------------------------|--------------------------|
|----------5---5-------7---|----------5---5-------7---|
|--------5-----------7-----|--------5-----------7-----|
|--0-5h7---------7/9-------|--0-5h7---------7/9-------|
|--------------------------|--------------------------|

|---------------------------------|--------------------------|
|-------------10---10----------12-|----------5---5-------7---|
|----------10---------------12----|--------5-----------7-----|
|--0-10h12------------12/14-------|--0-5h7---------7/9-------|
|---------------------------------|--------------------------|

|--------------------------|--------------------------|
|--------------------------|--------------------------|
|----------5---5-------7---|----------5---5-------7---|
|--------5-----------7-----|--------5-----------7-----|
|--0-5h7---------7/9-------|--0-5h7---------7/9-------|
|--------------------------|--------------------------|

|--------------5-----------|----5---------------------|
|---10---------6-----------|----5---------------------|
|---10---------5-----------|----5---------------------|
|---10---------7-----------|----7---------------------|
|---12---------5-----------|----7---------------------|
|--------------------------|--------------------------|


**Solo (use verse for the rhythm guitar)**

Bridge 2:58


|-5--5------------------------5--5-5---5--------3--3-3---3----5--5-5---5-|
|-5--5----------5--5----------6--6-6---6--------3--3-3---3----5--5-5---5-|
|-5--5----------5--5----------7--7-7---7--------4--4-4---4----5--5-5---5-|
|-7--7----------5--5----------7--7-7---7--------5--5-5---5----7--7-7---7-|
|-7--7----------3--3----------5--5-5---5--------5--5-5---5----7--7-7---7-|
|-----------------------------------------------3--3-3---3----5--5-5---5-|

|-5--5------------------------5--5-5---5--------3--3-3---3----5--5-5-----|
|-5--5----------5--5----------6--6-6---6--------3--3-3---3----5--5-5---5-|
|-5--5----------5--5----------7--7-7---7--------4--4-4---4----5--5-5---5-|
|-7--7----------5--5----------7--7-7---7--------5--5-5---5----7--7-7---5-|
|-7--7----------3--3----------5--5-5---5--------5--5-5---5----7--7-7---3-|
|-----------------------------------------------3--3-3---3----5--5-5-----|


Chorus 3:26

(Just 8 blank bars)
                         x8
|--------------------------|
|--------------------------|
|--------------------------|
|--------------------------|
|--------------------------|
|--------------------------|

"That's why, There ain't no love...."


**Solo (again, another time through the verse)**

Last Chorus


|--------------------------|--------------------------|
|--------------------------|--------------------------|
|----------5---5-------7---|----------5---5-------7---|
|--------5-----------7-----|--------5-----------7-----|
|--0-5h7---------7/9-------|--0-5h7---------7/9-------|
|--------------------------|--------------------------|

|---------------------------------|--------------------------|
|---------------------------------|--------------------------|
|-------------10---10----------12-|----------5---5-------7---|
|----------10---------------12----|--------5-----------7-----|
|--0-10h12------------12/14-------|--0-5h7---------7/9-------|
|---------------------------------|--------------------------|

|--------------------------|--------------------------|
|--------------------------|--------------------------|
|----------5---5-------7---|----------5---5-------7---|
|--------5-----------7-----|--------5-----------7-----|
|--0-5h7---------7/9-------|--0-5h7---------7/9-------|
|--------------------------|--------------------------|

|--------------5-----------|----5---------------------||
|---10---------6-----------|----6---------------------||
|---10---------5-----------|----5---------------------||
|---10---------7-----------|----7---------------------||
|---12---------5-----------|----5-------------0-3-----||
|--------------------------|--------------0-3-----3-0-||

Enjoy
Related for Aint No Love In The Heart Of The City tab
×
Best way to learn
"Aint No Love In The Heart Of The City"