Song name
# A B C D E F G H I J K L M N O P Q R S T U V W X Y Z

Whitesnake - Call On Me tab

Title: Call On Me
Band: Whitesnake                         GezzyDiversion
Album: Good To Be Bad (2008)
Guitarist: Doug Aldrich & Reb Beach

I know this tab has been requested all over youtube and on other sites.

Guitars are tuned Drop D half step down (Db Ab Db Gb Bb Eb)

Intro

|------------------------------------------|
|------3--------3-------------3--------3---|
|------2--------2-------------2--------2---|
|-3p0--0---3p0--0--------3p0--0---3p0--0---|
|----3--------3-------------3--------3-----|
|------------------------------------------|

Main Riff

|------------------------------------------------|
|-3-------------------------------------------5--|
|-2-------------------------------------------5--|
|-0-0--0-----------------------------------3--5--|
|---0--0---------------------3h5~~---------3--3--|
|---0--0---7p5\3-5p3p0---5h7------0-7p5p0--3-----|

|-----------------------------------------------|
|-3------------------------------------------5--|
|-2------------------------------------------5--|
|-0-0--0-------------------------3--------3--5--|
|---0--0---------------------3h5--5--3----3--3--|
|---0--0---7p5\3-5p3p0---5h7----------7p5\3-----|

Chorus

|---------------------------------|
|-3-3-3-3---------------------5-5-|
|-2-2-2-2-----------------3-3-5-5-|
|-0-0-0-0-3-3-3-3-5-5-5-5-3-3-5-5-|
|-0-0-0-0-3-3-3-3-5-5-5-5-1-1-3-3-|
|-0-0-0-0-3-3-3-3-5-5-5-5---------|


Thats all you really need, I cant work out solos that fast without slowing the song down.

Keep Rockin'!

Gez
Tap to rate this tab
 
# A B C D E F G H I J K L M N O P Q R S T U V W X Y Z