Guitaretab - guitar tabs
Song name
# A B C D E F G H I J K L M N O P Q R S T U V W X Y Z

Whitesnake - Still Of The Night tab

Ok the tabs for this song that I've seen suck so here is a more accurate version. These 
just the main parts of the song. I know my palm mute parts are confusing but just listen 
the song and you'll get it

~ Let Ring Out
h Hammer-on
p Pull-off
v vibrato
/ Slide Up
PM Palm Mute

--------------------------------------------------------------------|
--------------------------------------------------------------------|
--------------------------------------------------------------------|
--------------------------------------------------------------------|
---------4~------4~---4-3-2v~------------------4--------------------|
---/---0-2~----0-2~---------------------/----0-2--------------------|
                    [Pinch Harmonics]

In the Still of the Night...

Main Riff

---------------------------------------------------------------------|
-------------------------------------------------------5-------------|
-------------------------------------------------------4--4----------|
----------------------------------------------4--------2--4----------|
--0h3h2p0-2p0--------2h3h2p0-2p0-----------------------2--2----------|
---------------2p0----------------2p0--2~-2-2---2-2-0--0-------------|
              (PM)               (PM)    (PM)     (PM)
[ Tab from: http://www.guitaretab.com/w/whitesnake/205936.html ]
---------------------------------------------------------------------|
---------------------------------------------------------------------|
-------------------------------------------------------4-2-----------|
----------------------------------------------4--------4-2-----------|
--0h3h2p0-2p0--------2h3h2p0-2p0-----------------------2-0-4~~-----4-|
---------------2p0----------------2p0--2~-2-2---2-2-0------2~~---0-2-|
              (PM)               (PM)    (PM)     (PM)
In the Shadow of night...
(Repeat Main Riff)
Then this part

---------------------------------------------------------------------|
---------------------------------------------------------------------|
---------------------------------------------------------------------|
---------9-------------9------------9------------9-/-5---------------|
---------7-------------7------------7------------7-/-7---------------|
--0-0-0---0---0-0-0-0---0----0-0-0---0---0-0-0-0---------------------|
 (PM the 0's)


Now I just wanna get close to you...

---------------------------------------------------------------------|
---------------------------------------------------------------------|
-2---------------------4---------4--------2--------------------------|
-2---------------------4---------4--------2--5--3~-------------------|
-0------------0h3h2----2---------2--------0--5--3~-------------------|
---3-0-3-0---------------3-0-3-0-----/-------3--1~-------------------|
   __PM___               __PM___
Do this 4x


Bridge

---------------------------------------------------------------------|
---------------------------------------------------------------------|
----------7--------------5~-4~-------5------5-----5~----2~~----------|
----------7--------------5~-4~-------5------5-----5~----2~~--2~~-----|
-5~---7/9-------3~---5/7---------0-0----0-0----0-0------0~~--2~~-----|
-------------/---------------------------------------/-------0~~-----|
                                                       (Slowly Push down whammy or tune 
E-string)
Related for Still Of The Night tab
×
Best way to learn
"Still Of The Night"