Song name
# A B C D E F G H I J K L M N O P Q R S T U V W X Y Z

Whitesnake - Aint No Love tab

Band- Whitesnake
Song- Ain't No Love

E----------------------|----------------------|
B----------------------|----------------------|
G---------7--7\5--7/9--|---------7--7\5--7/9--|	x3
D-------5-7--7\5--7/9--|-------5-7--7\5--7/9--|
A-0-5-7----------------|-0-5-7----------------|
E----------------------|----------------------|


E----------------------|----------------------|
B---------7--7\5--7/9--|----------------------|
G-------5-7--7\5--7/9--|---------7--7\5--7/9--| x1
D-0-5-7----------------|-------5-7--7\5--7/9--|
A----------------------|-0-5-7----------------|
E----------------------|----------------------|


E----------------------|----------------------|
B----------------------|----------------------|
G---------7--7\5--7/9--|---------7--7\5--7/9--|	x1
D-------5-7--7\5--7/9--|-------5-7--7\5--7/9--|
A-0-5-7----------------|-0-5-7----------------|
E----------------------|----------------------|


E-0-0-0-|	 E----------------------|	E-----------|---------------|
B-7-8-6-|	 B----------------------|	B-----------|---------------|
G-5-6-4-| x1     G---------7--7\5--7/9--| x3	G---------7-|---------------| x1
D-6-7-5-|	 D-------5-7--7\5--7/9--|	D-------5-7-|---------------|
A-------|	 A-0-5-7----------------|	A-0-5-7-----|-------5-------|
E-------|	 E----------------------|	E-----------|-0-5-7---7-5-7-|
								
(Repeat Top 3 Tab sections only 1 at a time, then play 3 chords)

E------------|--------------------|-----------|
B------------|-/7--7\6/7\6\5\4/5--|-----------|
G-5-5-7-7-5--|--------------------|-7x7--5x5--| x2 (Repeat this one
D-5-5-7-7-5--|--------------------|-7x7--5x5--|     after 1st solo)
A------------|--------------------|-----------|
E------------|--------------------|-----------|

(Again repeat top 3 tab sections the same way, ending -w- 3 chords)

(During Both Solos)						
E-----------|	 E----------|	 E----------|	 E-0-0-0-|
B--5x5x5-7--|	 B--7x7x7-9-|	 B-5x5x5-7--|	 B-7-8-6-|
G--5x5x5-7--| x2 G--7x7x7-9-| x1 G-5x5x5-7--| x3 G-5-6-4-| x1
D-----------|	 D----------|	 D----------|	 D-6-7-5-|
A-----------|	 A----------|	 A----------|	 A-------|
E-----------|	 E----------|	 E----------|	 E-------|

(After second solo, repeat top one last time)
Tap to rate this tab
# A B C D E F G H I J K L M N O P Q R S T U V W X Y Z