Song name
# A B C D E F G H I J K L M N O P Q R S T U V W X Y Z

Whitesnake - Fool For Your Loving tab

----------------------------------------------------------------------------
			     Fool for your loving- Whitesnake 
----------------------------------------------------------------------------
Tabbed by: Newts456
Email: newton456@blueyonder.co.uk

Please! comments would be greatly appreciated!

Tuning: Standard

The solo is broken down into licks, itís just how I transcribed it by 
ear and practiced it in stages, I recommend doing this with any solo, 
hope this helps!! Keep rockin! check out the link for me playing a solo cover to this tab - 
it was recorded when i was still learning this song but you should get the idea 

http://www.youtube.com/watch?v=wTQGjqcrKb4

SOLO:
e|--------------------------------------------------------------------------|
B|--------------------------------------------------------------------------|
G|-----3---5b-r-p-3-5~~------3---3-\-2--------------------------------------|
D|---5---5---------------------5--------3-/-5~~-----------------------------|
A|--------------------------------------------------------------------------|
E|--------------------------------------------------------------------------|

e|---------3-6-5-3----------------------------------------------------------|
B|--------3--------3-6-3/6-\3-----------------------------------------------|
G|--3-5b-----------------------5-3/5--\3~~----------------------------------|
D|--------------------------------------------------------------------------|
A|--------------------------------------------------------------------------|
E|--------------------------------------------------------------------------|

e|--------------------------------------------------------------------------|
B|--------------------------------------------------------------------------|
G|-------------------------------------3------------------------------------|
D|---------------------------3----------------------------------------------|
A|-------1---------3---5-3-5-----5-3-5--------------------------------------|
E|-3-1-3-----3-1-3----------------------------------------------------------|

e|-----------------------------------3h6p3-6/8-6-5------6---------------15--|
B|--------------------------3h6p3-6----------------6/8---6/8--8--8-11---18b~|
G|--------------3---3h5p3-5-------------------------------------------------|
D|5-5-5p3-5-3-5---5---------------------------------------------------------|
A|--------------------------------------------------------------------------|
E|--------------------------------------------------------------------------|

e|15-------------------------------------------15-----------18bx-18~~-------|
B|---18p15----------------------------------15-----18p15--------------------|
G|----------17brp15-17-15------------15-17b---------------------------------|
D|--------------------------17-15-17----------------------------------------|
A|--------------------------------------------------------------------------|
E|--------------------------------------------------------------------------|

e|15------------------------------------------------------------------------|
B|---18p15-------------15---------------------------------------------------|
G|----------17brp15-17---15~--------------15~~------------------------------|
D|-----------------------------17-15-17-------------------------------------|
A|--------------------------------------------------------------------------|
E|--------------------------------------------------------------------------|

e|-18b~--18p15--------------------------------------------------------------|
B|--------------18p15---18/20~-20~-20~-20~-18h20-18p15----------------------|
G|------------------------------------------------------17brp15-17-15-------|
D|---------------------------------------------------------------------17~~-|
A|--------------------------------------------------------------------------|
E|--------------------------------------------------------------------------|

  /   slide up
  \   slide down
  h   hammer-on
  p   pull-off
  ~   vibrato
  x   Mute note
  brp bend release pull-off
Tap to rate this tab
 
# A B C D E F G H I J K L M N O P Q R S T U V W X Y Z