Song name
# A B C D E F G H I J K L M N O P Q R S T U V W X Y Z

Whitesnake - Best Years tab

           Whitesnake - BEST YEARS

                 
                        ~~
     Q.    E  Q          H     Q     Q   Q   Q     S      +S   +S   S  H
E||-------------------|-----------|-------------|---------------------------|
B||-------------------|-----------|-------------|---------------------------|
G||----------12b12.5--|-----------|-------------|---------------------------|
D||-14----14----------|-14----12--|-14--12------|---------------------------|
A||-------------------|-----------|---------14--|-12b14==(12)r(12)-10-------|
E||-------------------|-----------|-------------|---------------------12----|


                             |--3--|
   Q.    E  Q          H     E  E  E
|-------------------|----------------|
|-------------------|----------------|
|----------12b12.5--|----------------|
|-14----14----------|-14----14-12----|
|-------------------|-------------14-|
|-------------------|----------------|


   Q.      Q.        S      +S   +S   S  H
|-----------------|---------------------------|
|-----------------|---------------------------|
|-14b16---14b16---|-14b16==(14)r(14)-12-------|
|-----------------|---------------------14----|
|-----------------|---------------------------|
|-----------------|---------------------------|


 
    Q   E  Q   E    E  E  E  Q   E    E  E  E  Q   E    E  E  E  Q   E
|----------------|-----------------|-----------------|-----------------|
|----------------|-----------------|-----------------|-----------------|
|----------------|-----------------|-----------------|-----------------|
|-/14--14-14--14-|-14s16-16-16--16-|-16s17-17-17--17-|-17s19-19-19--19-|
|----------------|-----------------|-----------------|-----------------|
|----------------|-----------------|-----------------|-----------------|



   E  E  E  Q   E    E  E  E  Q   E    E  E   E  Q     E    Q    E  Q   E
|-----------------|-----------------|--------------------|----------------|
|-----------------|-----------------|--------------------|----------------|
|-----------------|-----------------|--------------------|----------------|
|-19s21-21-21--21-|-21s23-23-23--23-|-23s24--24-24----24-|-24---24-24--24-|
|-----------------|-----------------|--------------------|----------------|
|-----------------|-----------------|--------------------|----------------|
|
|
|        W                    W           Q.     E  Q       H.
|-----------------|-----------------|--------------------|----------------|
|-----------------|-----------------|--------------------|----------------|
|-----------------|-----------------|--------------------|----------------|
|-----------------|-----------------|--------------------|----------------|
|-----------------|-----------------|--------------------|----------------|
|-----------------|-----------------|------------x-12s===|==7\------------|


  E E E Q  E   E E E Q  E   E E E Q  E   E E  E    +E  +E    +E
|------------|------------|------------|-------------------------|
|------------|------------|------------|-------------------------|
|------------|------------|------------|-------------------------|
|-------2--2-|-------2--2-|-------2--2-|-------------------------|
|-------2--2-|-------2--2-|-------2--2-|-------------------------|
|-3p0---0--0-|-3p0---0--0-|-3p0---0--0-|-3p0-[5]b7r(5)-(5)b7r(5)-|


  E E E Q  E   E E E Q  E   E E E Q  E   Q  Q    Q
|------------|------------|------------|------------|
|------------|------------|------------|------------|
|------------|------------|------------|------------|
|-------2--2-|-------2--2-|-------2--2-|-7-------7--|
|-------2--2-|-------2--2-|-------2--2-|-7-------7--|
|-3p0---0--0-|-3p0---0--0-|-3p0---0--0-|-5--3b4--5--|


  E E E Q  E   E E E Q  E   E E E Q  E   E E  E    +E  +E    +E
|------------|------------|------------|-------------------------|
|------------|------------|------------|-------------------------|
|------------|------------|------------|-------------------------|
|-------2--2-|-------2--2-|-------2--2-|-------------------------|
|-------2--2-|-------2--2-|-------2--2-|-------------------------|
|-3p0---0--0-|-3p0---0--0-|-3p0---0--0-|-3p0-[5]b7r(5)-(5)b7r(5)-|


  E E E Q  E   E E E Q  E   a Q  E E E E   E E E   +Q.
|------------|------------|--------------|----------------|
|------------|------------|--------------|----------------|
|------------|------------|--------------|----------------|
|-------2--2-|-------2--2-|--------------|----------------|
|-------2--2-|-------2--2-|-5h7--5-------|----------------|
|-3p0---0--0-|-3p0---0--0-|--------7-5-3-|-5-7-3b4-(3)----|
                                              
                                                                                           

    E E E Q  E   E E E Q  E   E E E Q  E   E E  E    +E  +E    +E
||-------------|------------|------------|--------------------------|
||o------------|------------|------------|--------------------------|
||-------------|------------|------------|--------------------------|
||--------2--2-|-------2--2-|-------2--2-|--------------------------|
||o-------2--2-|-------2--2-|-------2--2-|--------------------------|
||--3p0---0--0-|-3p0---0--0-|-3p0---0--0-|-3p0-[5]b7r(5)-(5)b7r(5)--|
Somebody help me                                                     
drowning in sorrow                                               

  E E E Q  E   E E E Q  E   E E E Q  E   Q  Q    Q
|------------|------------|------------|------------|
|------------|------------|------------|------------|
|------------|------------|------------|------------|
|-------2--2-|-------2--2-|-------2--2-|-7-------7--|
|-------2--2-|-------2--2-|-------2--2-|-7-------7--|
|-3p0---0--0-|-3p0---0--0-|-3p0---0--0-|-5--3b4--5--|
I'm feeling low                                       
in deep misery 
                                      
  E E E Q  E   E E E Q  E   E E E Q  E   E E  E    +E  +E    +E
|------------|------------|------------|-------------------------|
|------------|------------|------------|-------------------------|
|------------|------------|------------|-------------------------|
|-------2--2-|-------2--2-|-------2--2-|-------------------------|
|-------2--2-|-------2--2-|-------2--2-|-------------------------|
|-3p0---0--0-|-3p0---0--0-|-3p0---0--0-|-3p0-[5]b7r(5)-(5)b7r(5)-|
I've been down for so long                  
someone throw me a line
  1.
  E E E Q  E   E E E Q  E   E E E Q  E   Q  Q    Q
|------------|------------|------------|-------------||
|------------|------------|------------|------------o||
|------------|------------|------------|-------------||
|-------2--2-|-------2--2-|-------2--2-|-7-------7---||
|-------2--2-|-------2--2-|-------2--2-|-7-------7--o||
|-3p0---0--0-|-3p0---0--0-|-3p0---0--0-|-5--3b4--5---||
don't know which way to go
I'm clean out of time

  2.
  E E E Q  E   E E E Q  E   a Q  Q  Q    E E E   +Q.
|------------|------------|------------|----------------|
|------------|------------|------------|----------------|
|------------|------------|------------|----------------|
|-------2--2-|-------2--2-|------------|----------------|
|-------2--2-|-------2--2-|-5h7--5-----|----------------|
|-3p0---0--0-|-3p0---0--0-|---------7--|-5-7-3b4-(3)----|
Lord I've got to break free

  H.              H.           H.              H.
|---------------|------------|---------------|------------|
|---------------|------------|---------------|------------|
|-6-------------|-7----------|-8-------------|-9----------|
|---------------|------------|---------------|------------|
|-4-------------|-5----------|-6-------------|-7----------|
|---------------|------------|---------------|------------|
You came         along       like a sun in the night

  H.              H.           H.              H.
|---------------|------------|---------------|-----------|
|---------------|------------|---------------|-----------|
|-6-------------|-7----------|-8-------------|-9---------|
|---------------|------------|---------------|-----------|
|-4-------------|-5----------|-6-------------|-7---------|
|---------------|------------|---------------|-----------|
took me out of the shadows


  E   E E  Q   E   E E E Q  E   E E E Q  E   E E  E    +E  +E    +E
|----------------|------------|------------|-------------------------|
|----------------|------------|------------|-------------------------|
|----------------|------------|------------|-------------------------|
|----------2---2-|-------2--2-|-------2--2-|-------------------------|
|----------2---2-|-------2--2-|-------2--2-|-------------------------|
|-3p==0----0---0-|-3p0---0--0-|-3p0---0--0-|-3p0-[5]b7r(5)-(5)b7r(5)-|
into the light!

  E E E Q  E   E E E Q  E   E E Q   Q    H.
|------------|------------|------------|-------|
|------------|------------|------------|-------|
|------------|------------|------------|-------|
|-------2--2-|-------2--2-|------------|-------|
|-------2--2-|-------2--2-|------------|-------|
|-3p0---0--0-|-3p0---0--0-|-3p0----12s=|=7\----|
(into the light)


  E E E Q  E   E E E Q  E   E E E Q  E   E E  E    +E  +E    +E
|------------|------------|------------|---------------------------|
|------------|------------|------------|---------------------------|
|------------|------------|------------|---------------------------|
|-------2--2-|-------2--2-|-------2--2-|---------------------------|
|-------2--2-|-------2--2-|-------2--2-|---------------------------|
|-3p0---0--0-|-3p0---0--0-|-3p0---0--0-|-3p0-[5]b7r(5)-(5)b7r(5)---|
Caught in a crossfire

  E E E Q  E   E E E Q  E   E E E Q  E   Q  Q    Q
|------------|------------|------------|------------|
|------------|------------|------------|------------|
|------------|------------|------------|------------|
|-------2--2-|-------2--2-|-------2--2-|-7-------7--|
|-------2--2-|-------2--2-|-------2--2-|-7-------7--|
|-3p0---0--0-|-3p0---0--0-|-3p0---0--0-|-5--3b4--5--|
of heartache and pain

  E E E Q  E   E E E Q  E   E E E Q  E   E E  E    +E  +E    +E
|------------|------------|------------|-------------------------|
|------------|------------|------------|-------------------------|
|------------|------------|------------|-------------------------|
|-------2--2-|-------2--2-|-------2--2-|-------------------------|
|-------2--2-|-------2--2-|-------2--2-|-------------------------|
|-3p0---0--0-|-3p0---0--0-|-3p0---0--0-|-3p0-[5]b7r(5)-(5)b7r(5)-|
searching so many years     thro' a river of tears

  E E E Q  E   E E E Q  E   a Q  Q  Q    E E E   +E  Q
|------------|------------|------------|-----------------||
|------------|------------|------------|-----------------||
|------------|------------|------------|-----------------||
|-------2--2-|-------2--2-|------------|-----------------||
|-------2--2-|-------2--2-|-5h7--5-----|-----------------||
|-3p0---0--0-|-3p0---0--0-|---------7--|-5-7-3b4-(3)-0---||
always shot down in flames


  H.              E E H       H.              E E H
|---------------|-----------|---------------|-----------|
|---------------|-----------|---------------|-----------|
|-6-------------|-7---------|-8-------------|-9---------|
|---------------|-----------|---------------|-----------|
|-4-------------|-5---------|-6-------------|-7---------|
|---------------|-----------|---------------|-----------|
You came         along      like a sun in the night


  H.              H.           H.               H.
|---------------|------------|---------------|------------|
|-7-------------|-8----------|-9-------------|-10---------|
|---------------|------------|---------------|------------|
|-4-------------|-5----------|-6-------------|--7---------|
|---------------|------------|---------------|------------|
|---------------|------------|---------------|------------|
took me out of the shadows

   H.               W            W            W
  E   E E  Q   E   E E E Q  E   E E E Q  E   E E  E    +E  +E    +E
|-----------------|------------|------------|-------------------------|
|-----------------|------------|------------|-------------------------|
|-----------------|------------|------------|-------------------------|
|-----------2---2-|-------2--2-|-------2--2-|-------------------------|
|-----------2---2-|-------2--2-|-------2--2-|-------------------------|
|--3p==0----0---0-|-3p0---0--0-|-3p0---0--0-|-3p0-[5]b7r(5)-(5)b7r(5)-|
into the light!

  E E E Q  E   E E E Q  E   E E E Q  E    H.
|------------|------------|------------|--------|
|------------|------------|------------|--------|
|------------|------------|------------|--------|
|-------2--2-|-------2--2-|-------2--2-|--------|
|-------2--2-|-------2--2-|-------2--2-|--------|
|-3p0---0--0-|-3p0---0--0-|-3p0---0--0-|-12\----|
(into the light)


  W         W         W         Q   Q  Q    E  E H      W
|---------|---------|---------|-3---2--0--|-0--2------|---------|
|---------|---------|---------|-----------|------3----|---------|
|---------|---------|---------|-----------|-----------|---------|
|---------|---------|---------|-----------|-----------|---------|
|---------|---------|---------|-----------|-----------|---------|
|---------|---------|---------|-----------|-----------|---------|
|
| 
| H.        H.        H.        H.          H.          H.
|---------|---------|---------|-----------|-----------|---------|
|---------|---------|---------|-----------|-----------|---------|
|-5-------|-5-------|-7-------|-7---------|-5---------|-5-------|
|-5-------|-5-------|-7-------|-7---------|-5---------|-5-------|
|-3-------|-3-------|-5-------|-5---------|-3---------|-3-------|
|---------|---------|---------|-----------|-----------|---------|
    Now these are the best years             truly the best years 

 
  W         E    +E  +Q   Q    H.        E    +E  +Q   Q
|---------|------------------|---------|------------------|
|---------|-7b8==(7)r(7)--5--|-5-------|-7b8==(7)r(7)--5--|
|---------|------------------|---------|------------------|
|---------|------------------|---------|------------------|
|---------|------------------|---------|------------------|
|---------|------------------|---------|------------------|
|
| 
| H.        H.                 H.        H.
|---------|------------------|---------|------------------|
|---------|------------------|---------|------------------|
|-9-------|-9----------------|-7-------|-7----------------|
|-9-------|-9----------------|-7-------|-7----------------|
|-7-------|-7----------------|-5-------|-5----------------|
|---------|------------------|---------|------------------|
of my life

  H.        E    +E  +Q   Q    H.                   W
|---------|------------------|-----------|---------------|
|-5-------|-7b8==(7)r(7)--5--|-5---------|---------------|
|---------|------------------|-----------|---------------|
|---------|------------------|-----------|---------------|
|---------|------------------|-----------|---------------|
|---------|------------------|-----------|---------------|
|
| H.        H.                 Q.   Q.     Q.    Q.
|---------|------------------|-----------|---------------|
|---------|------------------|-----------|---------------|
|-5-------|-5----------------|-2----2----|-2-------------|
|-5-------|-5----------------|-2----2----|-2-------------|
|-3-------|-3----------------|-0----0----|-0-------------|
|---------|------------------|-----------|------12\------|
                             the best years of my life

  E E E Q  E   E E E Q  E   E E E Q  E   E E  E    +E  +E    +E
|------------|------------|------------|-------------------------|
|------------|------------|------------|-------------------------|
|------------|------------|------------|-------------------------|
|-------2--2-|-------2--2-|-------2--2-|-------------------------|
|-------2--2-|-------2--2-|-------2--2-|-------------------------|
|-3p0---0--0-|-3p0---0--0-|-3p0---0--0-|-3p0-[5]b7r(5)-(5)b7r(5)-|


                                <
  E E E Q  E   E E E Q  E   E E H      +H.
|------------|------------|----------|--------|
|------------|------------|----------|--------|
|------------|------------|----------|--------|
|-------2--2-|-------2--2-|-----2----|-(2)----|
|-------2--2-|-------2--2-|-----2----|-(2)----|
|-3p0---0--0-|-3p0---0--0-|-3p0-0----|-(0)----|



  E E E Q  E   E E E Q  E   E E E Q  E   E E  E    +E  +E    +E
|------------|------------|------------|---------------------------|
|------------|------------|------------|---------------------------|
|------------|------------|------------|---------------------------|
|-------2--2-|-------2--2-|-------2--2-|---------------------------|
|-------2--2-|-------2--2-|-------2--2-|---------------------------|
|-3p0---0--0-|-3p0---0--0-|-3p0---0--0-|-3p0-[5]b7r(5)-(5)b7r(5)---|
Bad luck and trouble

  E E E Q  E   E E E Q  E   E E E Q  E   Q  Q    Q
|------------|------------|------------|------------|
|------------|------------|------------|------------|
|------------|------------|------------|------------|
|-------2--2-|-------2--2-|-------2--2-|-7-------7--|
|-------2--2-|-------2--2-|-------2--2-|-7-------7--|
|-3p0---0--0-|-3p0---0--0-|-3p0---0--0-|-5--3b4--5--|
everyday of my life

  E E E Q  E   E E E Q  E   E E E Q  E   E E  E    +E  +E    +E
|------------|------------|------------|-------------------------|
|------------|------------|------------|-------------------------|
|------------|------------|------------|-------------------------|
|-------2--2-|-------2--2-|-------2--2-|-------------------------|
|-------2--2-|-------2--2-|-------2--2-|-------------------------|
|-3p0---0--0-|-3p0---0--0-|-3p0---0--0-|-3p0-[5]b7r(5)-(5)b7r(5)-|
every lonely lonely night

  E E E Q  E   E E E Q  E   a Q  E E E E   E E E   +Q.
|------------|------------|--------------|----------------|
|------------|------------|--------------|----------------|
|------------|------------|--------------|----------------|
|-------2--2-|-------2--2-|--------------|----------------|
|-------2--2-|-------2--2-|-5h7--5-------|----------------|
|-3p0---0--0-|-3p0---0--0-|--------7-5-3-|-5-7-3b4-(3)----|
like a cold hearted twist of the knife

 
  H.              E E H       H.              E E H
|---------------|-----------|---------------|-----------|
|---------------|-----------|---------------|-----------|
|-6-------------|-7---------|-8-------------|-9---------|
|---------------|-----------|---------------|-----------|
|-4-------------|-5---------|-6-------------|-7---------|
|---------------|-----------|---------------|-----------|
You came         along       like a sun in the night

  H.              H.           H.               H.
|---------------|------------|---------------|------------|
|-7-------------|-8----------|-9-------------|-10---------|
|---------------|------------|---------------|------------|
|-4-------------|-5----------|-6-------------|--7---------|
|---------------|------------|---------------|------------|
|---------------|------------|---------------|------------|
ook me out of the shadows

   H.               W            W            W
   E   E E  Q   E   E E E Q  E   E E E Q  E   E E  E    +E  +E    +E
|-----------------|------------|------------|-------------------------|
|-----------------|------------|------------|-------------------------|
|-----------------|------------|------------|-------------------------|
|-----------2---2-|-------2--2-|-------2--2-|-------------------------|
|-----------2---2-|-------2--2-|-------2--2-|-------------------------|
|--3p==0----0---0-|-3p0---0--0-|-3p0---0--0-|-3p0-[5]b7r(5)-(5)b7r(5)-|
into the light

  E E E Q  E   E E E Q  E   E E E Q  E    H.
|------------|------------|------------|--------|
|------------|------------|------------|--------|
|------------|------------|------------|--------|
|-------2--2-|-------2--2-|-------2--2-|--------|
|-------2--2-|-------2--2-|-------2--2-|--------|
|-3p0---0--0-|-3p0---0--0-|-3p0---0--0-|-12\----|
(into the light)


  W         W         W         Q   Q  Q    E  E H      W
|---------|---------|---------|-3---2--0--|-0--2------|---------|
|---------|---------|---------|-----------|------3----|---------|
|---------|---------|---------|-----------|-----------|---------|
|---------|---------|---------|-----------|-----------|---------|
|---------|---------|---------|-----------|-----------|---------|
|---------|---------|---------|-----------|-----------|---------|
|
| 
| H.        H.        H.        H.          H.          H.
|---------|---------|---------|-----------|-----------|---------|
|---------|---------|---------|-----------|-----------|---------|
|-5-------|-5-------|-7-------|-7---------|-5---------|-5-------|
|-5-------|-5-------|-7-------|-7---------|-5---------|-5-------|
|-3-------|-3-------|-5-------|-5---------|-3---------|-3-------|
|---------|---------|---------|-----------|-----------|---------|
    Now these are the best years                  truly the 

  W         Q   Q  Q    H.        +H     Q    H.        W
|---------|-3---2--0--|-2-------|-(2)----0--|---------|-------|
|---------|-----------|---------|-----------|-3-------|-------|
|---------|-----------|---------|-----------|---------|-------|
|---------|-----------|---------|-----------|---------|-------|
|---------|-----------|---------|-----------|---------|-------|
|---------|-----------|---------|-----------|---------|-------|
|
| H.        H.          H.         H.         H.        H.
|---------|-----------|---------|-----------|---------|-------|
|---------|-----------|---------|-----------|---------|-------|
|-7-------|-7---------|-5-------|--5--------|-7-------|-7-----|
|-7-------|-7---------|-5-------|--5--------|-7-------|-7-----|
|-5-------|-5---------|-3-------|--3--------|-5-------|-5-----|
|---------|-----------|---------|-----------|---------|-------|
best years                 hooo the best years


  W         E    +E  +Q   Q    H.        E    +E  +Q   Q
|---------|------------------|---------|------------------|
|---------|-7b8==(7)r(7)--5--|-5-------|-7b8==(7)r(7)--5--|
|---------|------------------|---------|------------------|
|---------|------------------|---------|------------------|
|---------|------------------|---------|------------------|
|---------|------------------|---------|------------------|
|
| 
| H.        H.                 H.        H.
|---------|------------------|---------|------------------|
|---------|------------------|---------|------------------|
|-9-------|-9----------------|-7-------|-7----------------|
|-9-------|-9----------------|-7-------|-7----------------|
|-7-------|-7----------------|-5-------|-5----------------|
|---------|------------------|---------|------------------|
of my life

  H.        E    +E  +Q   Q    H.                W
|---------|------------------|-----------|---------------|
|-5-------|-7b8==(7)r(7)--5--|-5---------|---------------|
|---------|------------------|-----------|---------------|
|---------|------------------|-----------|---------------|
|---------|------------------|-----------|---------------|
|---------|------------------|-----------|---------------|
|
| H.        H.                 Q.   Q.     Q   Q    Q
|---------|------------------|-----------|---------------|
|---------|------------------|-----------|---------------|
|-5-------|-5----------------|-2----2----|-2-------------|
|-5-------|-5----------------|-2----2----|-2-------------|
|-3-------|-3----------------|-0----0----|-0-------------|
|---------|------------------|-----------|-----3----2----|
                              the best years of my life


  W         E    +E  +Q   Q    H.        E    +E  +Q   Q
|---------|------------------|---------|------------------|
|---------|-7b8==(7)r(7)--5--|-5-------|-7b8==(7)r(7)--5--|
|---------|------------------|---------|------------------|
|---------|------------------|---------|------------------|
|---------|------------------|---------|------------------|
|---------|------------------|---------|------------------|
|
| 
| H.        H.                 H.        H.
|---------|------------------|---------|------------------|
|---------|------------------|---------|------------------|
|-9-------|-9----------------|-7-------|-7----------------|
|-9-------|-9----------------|-7-------|-7----------------|
|-7-------|-7----------------|-5-------|-5----------------|
|---------|------------------|---------|------------------|


  H.        E    +E  +Q   Q    H.                   W
|---------|------------------|-----------|---------------|
|-5-------|-7b8==(7)r(7)--5--|-5---------|---------------|
|---------|------------------|-----------|---------------|
|---------|------------------|-----------|---------------|
|---------|------------------|-----------|---------------|
|---------|------------------|-----------|---------------|
|
| H.        H.                 Q.   Q.     Q.    Q.
|---------|------------------|-----------|---------------|
|---------|------------------|-----------|---------------|
|-5-------|-5----------------|-2----2----|-2-------------|
|-5-------|-5----------------|-2----2----|-2-------------|
|-3-------|-3----------------|-0----0----|-0-------------|
|---------|------------------|-----------|------12\------|
                              the best years of my life

                       ~~
   Q.    E  Q          H     Q     Q   Q   Q     S      +S   +S   S  H
|-------------------|-----------|-------------|---------------------------|
|-------------------|-----------|-------------|---------------------------|
|----------12b12.5--|-----------|-------------|---------------------------|
|-14----14----------|-14----12--|-14--12------|---------------------------|
|-------------------|-----------|---------14--|-12b14==(12)r(12)-10-------|
|-------------------|-----------|-------------|---------------------12----|


                             |--3--|
   Q.    E  Q          H     E  E  E
|-------------------|----------------|
|-------------------|----------------|
|----------12b12.5--|----------------|
|-14----14----------|-14----14-12----|
|-------------------|-------------14-|
|-------------------|----------------|


   Q.      Q.        S      +S   +S   S  H
|-----------------|---------------------------|
|-----------------|---------------------------|
|-14b16---14b16---|-14b16==(14)r(14)-12-------|
|-----------------|---------------------14----|
|-----------------|---------------------------|
|-----------------|---------------------------|



    Q   E  Q   E    E  E  E  Q   E    E  E  E  Q   E    E  E  E  Q   E
|----------------|-----------------|-----------------|-----------------|
|----------------|-----------------|-----------------|-----------------|
|----------------|-----------------|-----------------|-----------------|
|-/14--14-14--14-|-14s16-16-16--16-|-16s17-17-17--17-|-17s19-19-19--19-|
|----------------|-----------------|-----------------|-----------------|
|----------------|-----------------|-----------------|-----------------|


    E  E  E  Q   E    E  E  E  Q   E    E  E  +H        +H.
|-----------------|-----------------|---------------|---------|
|-----------------|-----------------|---------------|---------|
|-----------------|-----------------|---------------|---------|
|-19s21-21-21--21-|-21s23-23-23--23-|-23s24-(24)----|-(24)----|
|-----------------|-----------------|---------------|---------|
|-----------------|-----------------|---------------|---------|


[Solo]
  H.        H.        H.        H.        H.        H.        H.        H.
|---------|---------|---------|---------|---------|---------|---------|-------|
|---------|---------|---------|---------|---------|---------|---------|-------|
|---------|---------|---------|---------|---------|---------|---------|-------|
|-2-------|-2-------|-5-------|-7-------|-2-------|-2-------|-5-------|-7-----|
|-2-------|-2-------|-5-------|-7-------|-2-------|-2-------|-5-------|-7-----|
|-0-------|-0-------|-3-------|-5-------|-0-------|-0-------|-3-------|-5-----|


  H.        H.        H.        H.        H.        H.        H.        H.
|---------|---------|---------|---------|---------|---------|---------|-------|
|---------|---------|---------|---------|---------|---------|---------|-------|
|---------|---------|---------|---------|---------|---------|---------|-7-----|
|-2-------|-2-------|-5-------|-7-------|-2-------|-2-------|-5-------|-7-----|
|-2-------|-2-------|-5-------|-7-------|-2-------|-2-------|-5-------|-5-----|
|-0-------|-0-------|-3-------|-5-------|-0-------|-0-------|-3-------|-------|


  H.        H.        H.        H.        H.        H.        H.        H.
|---------|---------|---------|---------|---------|---------|---------|-------|
|---------|---------|---------|---------|---------|---------|---------|-------|
|-2-------|-2-------|-2-------|-2-------|-2-------|-2-------|-2-------|-2-----|
|-2-------|-2-------|-2-------|-2-------|-2-------|-2-------|-2-------|-2-----|
|-0-------|-0-------|-0-------|-0-------|-0-------|-0-------|-0-------|-0-----|
|---------|---------|---------|---------|---------|---------|---------|-------|


  H.        H.        H.        H.        H.        H.        H.        H.
|---------|---------|---------|---------|---------|---------|---------|-------|
|---------|---------|---------|---------|---------|---------|---------|-------|
|---------|---------|---------|---------|---------|---------|---------|-------|
|-2-------|-2-------|-5-------|-7-------|-2-------|-2-------|-5-------|-7-----|
|-2-------|-2-------|-5-------|-7-------|-2-------|-2-------|-5-------|-7-----|
|-0-------|-0-------|-3-------|-5-------|-0-------|-0-------|-3-------|-5-----|


  H.        H.        H.        H.        H.        H.        H.        H.
|---------|---------|---------|---------|---------|---------|---------|-------|
|---------|---------|---------|---------|---------|---------|---------|-------|
|-4-------|-4-------|-4-------|-4-------|-2-------|-2-------|-2-------|-2-----|
|-2-------|-2-------|-2-------|-2-------|-2-------|-2-------|-2-------|-2-----|
|-2-------|-2-------|-2-------|-2-------|-0-------|-0-------|-0-------|-0-----|
|---------|---------|---------|---------|---------|---------|---------|-------|


  H.        H.        H.        H.        H.        H.        H.        H.
|---------|---------|---------|---------|---------|---------|---------|-------|
|---------|---------|---------|---------|---------|---------|---------|-------|
|-4-------|-4-------|-4-------|-4-------|-5-------|-5-------|-7-------|-7-----|
|-2-------|-2-------|-2-------|-2-------|-5-------|-5-------|-7-------|-7-----|
|-2-------|-2-------|-2-------|-2-------|-3-------|-3-------|-5-------|-5-----|
|---------|---------|---------|---------|---------|---------|---------|-------|


  E E E Q  E   E E E Q  E   E E E Q  E   E E  E    +E  +E    +E
|------------|------------|------------|-------------------------|
|------------|------------|------------|-------------------------|
|------------|------------|------------|-------------------------|
|-------2--2-|-------2--2-|-------2--2-|-------------------------|
|-------2--2-|-------2--2-|-------2--2-|-------------------------|
|-3p0---0--0-|-3p0---0--0-|-3p0---0--0-|-3p0-[5]b7r(5)-(5)b7r(5)-|


                                <
  E E E Q  E   E E E Q  E   E E H      +H.
|------------|------------|----------|--------|
|------------|------------|----------|--------|
|------------|------------|----------|--------|
|-------2--2-|-------2--2-|-----2----|-(2)----|
|-------2--2-|-------2--2-|-----2----|-(2)----|
|-3p0---0--0-|-3p0---0--0-|-3p0-0----|-(0)----|




  E E E Q  E   E E E Q  E   E E E Q  E   E E  E    +E  +E    +E
|------------|------------|------------|-------------------------|
|------------|------------|------------|-------------------------|
|------------|------------|------------|-------------------------|
|-------2--2-|-------2--2-|-------2--2-|-------------------------|
|-------2--2-|-------2--2-|-------2--2-|-------------------------|
|-3p0---0--0-|-3p0---0--0-|-3p0---0--0-|-3p0-[5]b7r(5)-(5)b7r(5)-|
Somebody help me

  E E E Q  E   E E E Q  E   E E E Q  E   Q  Q    Q
|------------|------------|------------|------------|
|------------|------------|------------|------------|
|------------|------------|------------|------------|
|-------2--2-|-------2--2-|-------2--2-|-7-------7--|
|-------2--2-|-------2--2-|-------2--2-|-7-------7--|
|-3p0---0--0-|-3p0---0--0-|-3p0---0--0-|-5--3b4--5--|
I'm feeling low

  E E E Q  E   E E E Q  E   E E E Q  E   E E  E    +E  +E    +E
|------------|------------|------------|-------------------------|
|------------|------------|------------|-------------------------|
|------------|------------|------------|-------------------------|
|-------2--2-|-------2--2-|-------2--2-|-------------------------|
|-------2--2-|-------2--2-|-------2--2-|-------------------------|
|-3p0---0--0-|-3p0---0--0-|-3p0---0--0-|-3p0-[5]b7r(5)-(5)b7r(5)-|
I've been down so long

  E E E Q  E   E E E Q  E   a Q  Q  Q    E E E   +Q.
|------------|------------|------------|----------------|
|------------|------------|------------|----------------|
|------------|------------|------------|----------------|
|-------2--2-|-------2--2-|------------|----------------|
|-------2--2-|-------2--2-|-5h7--5-----|----------------|
|-3p0---0--0-|-3p0---0--0-|---------7--|-5-7-3b4-(3)----|
babe I've got to let go

 
  H.          E E H       H.          E E H
|-----------|-----------|-----------|-----------|
|-----------|-----------|-----------|-----------|
|-6---------|-7---------|-8---------|-9---------|
|-----------|-----------|-----------|-----------|
|-4---------|-5---------|-6---------|-7---------|
|-----------|-----------|-----------|-----------|
You came     along       like a sun in the night


  H.          H.          H.           H.
|-----------|-----------|-----------|------------|
|-7---------|-8---------|-9---------|-10---------|
|-----------|-----------|-----------|------------|
|-4---------|-5---------|-6---------|--7---------|
|-----------|-----------|-----------|------------|
|-----------|-----------|-----------|------------|
took me     out of the shadows


   E   E E  Q   E   E E E Q  E   E E E Q  E   E E  E    +E  +E    +E
|-----------------|------------|------------|-------------------------|
|-----------------|------------|------------|-------------------------|
|-----------------|------------|------------|-------------------------|
|-----------2---2-|-------2--2-|-------2--2-|-------------------------|
|-----------2---2-|-------2--2-|-------2--2-|-------------------------|
|--3p==0----0---0-|-3p0---0--0-|-3p0---0--0-|-3p0-[5]b7r(5)-(5)b7r(5)-|
into the light

  E E E Q  E   E E E Q  E   E E E Q  E    H.
|------------|------------|------------|--------|
|------------|------------|------------|--------|
|------------|------------|------------|--------|
|-------2--2-|-------2--2-|-------2--2-|--------|
|-------2--2-|-------2--2-|-------2--2-|--------|
|-3p0---0--0-|-3p0---0--0-|-3p0---0--0-|-12\----|
(into the light)


  W         W         W         Q   Q  Q    E  E H      W
|---------|---------|---------|-3---2--0--|-0--2-0----|---------|
|---------|---------|---------|-----------|-----------|---------|
|---------|---------|---------|-----------|-----------|---------|
|---------|---------|---------|-----------|-----------|---------|
|---------|---------|---------|-----------|-----------|---------|
|---------|---------|---------|-----------|-----------|---------|
|
|
| H.        H.        H.        H.          H.          H.
|---------|---------|---------|-----------|-----------|---------|
|---------|---------|---------|-----------|-----------|---------|
|-5-------|-5-------|-7-------|-7---------|-5---------|-5-------|
|-5-------|-5-------|-7-------|-7---------|-5---------|-5-------|
|-3-------|-3-------|-5-------|-5---------|-3---------|-3-------|
|---------|---------|---------|-----------|-----------|---------|
    Now these are the best years                truly 

  W         Q   Q  Q    H.        W         W         W
|---------|-3---2--0--|---------|---------|---------|-------|
|---------|-----------|-3-------|---------|---------|-------|
|---------|-----------|---------|---------|---------|-------|
|---------|-----------|---------|---------|---------|-------|
|---------|-----------|---------|---------|---------|-------|
|---------|-----------|---------|---------|---------|-------|
|
| H.        H.          H.        H.        H.        H.
|---------|-----------|---------|---------|---------|-------|
|---------|-----------|---------|---------|---------|-------|
|-7-------|-7---------|-5-------|-5-------|-7-------|-7-----|
|-7-------|-7---------|-5-------|-5-------|-7-------|-7-----|
|-5-------|-5---------|-3-------|-3-------|-5-------|-5-----|
|---------|-----------|---------|---------|---------|-------|
the best years              hooo the best years of my life


  W         E    +E  +Q   Q    H.        E    +E  +Q   Q
|---------|------------------|---------|------------------|
|---------|-7b8==(7)r(7)--5--|-5-------|-7b8==(7)r(7)--5--|
|---------|------------------|---------|------------------|
|---------|------------------|---------|------------------|
|---------|------------------|---------|------------------|
|---------|------------------|---------|------------------|
|
| 
| H.        H.                 H.        H.
|---------|------------------|---------|------------------|
|---------|------------------|---------|------------------|
|-9-------|-9----------------|-7-------|-7----------------|
|-9-------|-9----------------|-7-------|-7----------------|
|-7-------|-7----------------|-5-------|-5----------------|
|---------|------------------|---------|------------------|


  H.        E    +E  +Q   Q    H.                W
|---------|------------------|-----------|---------------|
|-5-------|-7b8==(7)r(7)--5--|-5---------|---------------|
|---------|------------------|-----------|---------------|
|---------|------------------|-----------|---------------|
|---------|------------------|-----------|---------------|
|---------|------------------|-----------|---------------|
|
| H.        H.                 Q.   Q.     Q   Q    Q
|---------|------------------|-----------|---------------|
|---------|------------------|-----------|---------------|
|-5-------|-5----------------|-2----2----|-2-------------|
|-5-------|-5----------------|-2----2----|-2-------------|
|-3-------|-3----------------|-0----0----|-0-------------|
|---------|------------------|-----------|-----3----2----|
                              the best years of my life


  W         E    +E  +Q   Q    H.        E    +E  +Q   Q
|---------|------------------|---------|------------------|
|---------|-7b8==(7)r(7)--5--|-5-------|-7b8==(7)r(7)--5--|
|---------|------------------|---------|------------------|
|---------|------------------|---------|------------------|
|---------|------------------|---------|------------------|
|---------|------------------|---------|------------------|
|
| 
| H.        H.                 H.        H.
|---------|------------------|---------|------------------|
|---------|------------------|---------|------------------|
|-9-------|-9----------------|-7-------|-7----------------|
|-9-------|-9----------------|-7-------|-7----------------|
|-7-------|-7----------------|-5-------|-5----------------|
|---------|------------------|---------|------------------|


  H.        E    +E  +Q   Q    H.                   W
|---------|------------------|-----------|---------------|
|-5-------|-7b8==(7)r(7)--5--|-5---------|---------------|
|---------|------------------|-----------|---------------|
|---------|------------------|-----------|---------------|
|---------|------------------|-----------|---------------|
|---------|------------------|-----------|---------------|
|
| H.        H.                 Q.   Q.     Q.    Q.
|---------|------------------|-----------|---------------|
|---------|------------------|-----------|---------------|
|-5-------|-5----------------|-2----2----|-2-------------|
|-5-------|-5----------------|-2----2----|-2-------------|
|-3-------|-3----------------|-0----0----|-0-------------|
|---------|------------------|-----------|------12\------|
                               the best years of my life

   
    Q.   E Q    Q.   E Q    Q.   E Q    Q.   E Q
||--0----0-0--|-0----0-0--|-0----0-0--|-0----0-0--|
||o-5----5-5--|-5----5-5--|-7----7-7--|-7----7-7--|
||------------|-----------|-----------|-----------|
||------------|-----------|-----------|-----------|
||o-----------|-----------|-----------|-----------|
||------------|-----------|-----------|-----------|
|
|   
|   H.          H.          H.          H.
||------------|-----------|-----------|-----------|
||o-----------|-----------|-----------|-----------|
||------------|-----------|-----------|-----------|
||--2---------|-2---------|-4---------|-4---------|
||o-2---------|-2---------|-4---------|-4---------|
||--0---------|-0---------|-2---------|-2---------|


  Q.   E Q    Q.   E Q     Q.    E   Q     Q.    E  Q     3x
|-0----0-0--|-0----0-0--|--0-----0---0--|--0-----0--0-----||
|-8----8-8--|-8----8-8--|-10----10--10--|-10----10-10----o||
|-----------|-----------|---------------|-----------------||
|-----------|-----------|---------------|-----------------||
|-----------|-----------|---------------|----------------o||
|-----------|-----------|---------------|-----------------||
|       
| H.          H.           Q.    Q.        H.             3x
|-----------|-----------|---------------|-----------------||
|-----------|-----------|---------------|----------------o||
|-----------|-----------|---------------|-----------------||
|-5---------|-5---------|--7-----7------|--7--------------||
|-5---------|-5---------|--7-----7------|--7-------------o||
|-3---------|-3---------|--5-----5------|--5--------------||
                         the best years of my life.. 

  E E E E E E   E E E E E E   E E E E E E
|-------------|-------------|-------------|
|-------------|-------------|-------------|
|-9-9---9---9-|-9---9---9---|-9-9---9---9-|
|-9-9---9---9-|-9---9---9---|-9-9---9---9-|
|-7-7---7---7-|-7---7---7---|-7-7---7---7-|
|-0-0---0---0-|-0---0---0---|-0-0---0---0-|


  E E E E E E   E E E E E E   E E E E E E   Q   H
|-------------|-------------|-------------|----------*||
|-------------|-------------|-------------|----------*||
|-9---9---9---|-9-9---9---9-|-9---9---9---|-9\-------*||
|-9---9---9---|-9-9---9---9-|-9---9---9---|-9\-------*||
|-7---7---7---|-7-7---7---7-|-7---7---7---|-7\-------*||
|-0---0---0---|-0-0---0---0-|-0---0---0---|----------*||




Duration Legend
---------------
W - whole
H - half
Q - quarter
E - 8th
S - 16th
T - 32nd
X - 64th
. - note dotted
|-n-|  - n-tuplets


Tablature Legend
----------------
L - tied note
x - dead note
g - grace note
(n) - ghost note
> - accentuded note
NH - natural harmonic
AH - artificial harmonic
TH - tapped harmonic
SH - semi harmonic
PH - pitch harmonic
h - hammer on
p - pull off
b - bend
br - bendRelease
pb - preBend
pbr - preBendRelease
brb - bendReleaseBend
\n/ - tremolo bar dip
\n - tremolo bar dive
-/n - tremolo bar Release up
/n\ - tremolo bar inverted dip
/n - tremolo bar return
-\n - tremolo bar Release down
S - shift slide
s - legato slide
/ -  slide into from below or out of upwards
\ -  slide into from above or out of downwards
~ - vibrato
W - wide vibrato
tr - trill
TP - tremolo picking
T - tapping
S - slap
P - pop
< - fade in
^ - brush up
v - brush down
Tap to rate this tab
 
# A B C D E F G H I J K L M N O P Q R S T U V W X Y Z