Song name
# A B C D E F G H I J K L M N O P Q R S T U V W X Y Z

Whitesnake - Lay Down Your Love tab

          Whitesnake - Lay Down Your Love                                




     W                   W                   W                 
E||-------------------|-------------------|-------------------|
B||-------------------|-------------------|-------------------|
G||-------------------|-------------------|-------------------|
D||-------------------|-------------------|-------------------|
A||-------------------|-------------------|-------------------|
D||-------------------|-------------------|-------------------|

Lay down your love
Lay it down on me
Lay down your love
Lay it down on me


  W                   S S S S S  S S S E   S S  S S E     W                 
-------------------|-----------------------------------|-------------------|
-------------------|-----------------------------------|-------------------|
-------------------|----------1b-----------------------|-------------------|
-------------------|----1-3------3-1-3-----3------3----|-------------------|
-------------------|--3-----3--------------------------|-------------------|
-------------------|-------------------7b----5b-L---3--|--L----------------|


          |--3--|                                          
  S S S S S   S S S S E   S S  S S E     W                 
--------------------------------------|-------------------|
--------------------------------------|-------------------|
----------1br-L-----------------------|-------------------|
----1-3---------3-1-3-----3------3----|-------------------|
--3-----3-----------------------------|-------------------|
----------------------7b----5b-L---3--|--L----------------|


                                              |--3--|                      
  S S S S S  S S S E   S S  S S E     S S S S S   S S S S E   S S  S S E   
-----------------------------------|--------------------------------------|
-----------------------------------|--------------------------------------|
----------1b-----------------------|----------1br-L-----------------------|
----1-3------3-1-3-----3------3----|----1-3---------3-1-3-----3------3----|
--3-----3--------------------------|--3-----3-----------------------------|
-------------------7b----5b-L---3--|----------------------7b----5b-L---3--|


    PM   PM   PM PM     PM     PM         PM   PM   PM PM     PM     PM     
  S S  S S  S E  S  S S S  S S S  E     S S  S S  S E  S  S S S  S S S  E   
-------------------------------------|-------------------------------------|
-------------------------------------|-------------------------------------|
-------------------------------------|-------------------------------------|
-------3----3-------6-L----6-8----6--|--L----3----3-------6-L----6-8----6--|
--------------------6-L----6-8----6--|--L-----------------6-L----6-8----6--|
--L-3----3----3--3--6-L-3--6-8-3--6--|--L-3----3----3--3--6-L-3--6-8-3--6--|


    PM   PM   PM PM     PM     PM         PM   PM   PM                  
  S S  S S  S E  S  S S S  S S S  E     S S  S S  S S  E  E  S S E  E   
-------------------------------------|---------------------------------|
-------------------------------------|---------------------------------|
-------------------------------------|---------------------------------|
--L----3----3-------6-L----6-8----6--|--L----3----3--------------------|
--L-----------------6-L----6-8----6--|--L-----------------8--L-6-L--3--|
--L-3----3----3--3--6-L-3--6-8-3--6--|--L-3----3----3-----8--L-6-L--3--|


    W                   H        E   Q.       
|--------------------|-----------------------|
|--------------------|-----------------------|
|*-------------------|-----------------------|
|*-------------------|-----------------------|
|---L----------------|--L--------L-----------|
|---L----------------|--L--------L---x\------|

All my life IŽve been alone,
looking for somebody
To call my own

                                              |--3--|                      
  S S S S S  S S S E   S S  S S E     S S S S S   S S S S E   S S  S S E   
-----------------------------------|--------------------------------------|
-----------------------------------|--------------------------------------|
----------1b-----------------------|----------1br-L-----------------------|
----1-3------3-1-3-----3------3----|----1-3---------3-1-3-----3------3----|
--3-----3--------------------------|--3-----3-----------------------------|
-------------------7b----5b-L---3--|----------------------7b----5b-L---3--|


  W                   E  E  E  E   E   Q.       
-------------------|---------------------------|
-------------------|---------------------------|
-------------------|---------------------------|
-------------------|---------------------------|
-------------------|--3--------6~--L-----------|
--L----------------|--3--------6~--L---x\------|
It feels so good
Since I found you,
youŽre my one and only               Dream...

                                              |--3--|                      
  S S S S S  S S S E   S S  S S E     S S S S S   S S S S E   S S  S S E   
-----------------------------------|--------------------------------------|
-----------------------------------|--------------------------------------|
----------1b-----------------------|----------1br-L-----------------------|
----1-3------3-1-3-----3------3----|----1-3---------3-1-3-----3------3----|
--3-----3--------------------------|--3-----3-----------------------------|
-------------------7b----5b-L---3--|----------------------7b----5b-L---8--|
come true

                                   PM      PM   PM      
  H.           E  E     Q     E  S S  S E  S  S S  S S  
---------------------|---------------------------------|
---------------------|---------------------------------|
---------------------|---------------------------------|
---------------------|----------------6-6-----6----6-8-|
---------------------|----------------6-6-----6----6-8-|
--L------------L--6--|--L\---------3--6-6--3--6-3--8-8-|
Now I canŽt stop this feeling       Feeling deep inside

     PM   PM   PM PM     PM     PM         PM   PM   PM                  
  S  S  S S  S E  S  S S S  S S S  E     S S  S S  S S  E  E  S S E  E   
--------------------------------------|---------------------------------|
--------------------------------------|---------------------------------|
--------------------------------------|---------------------------------|
--L\----3----3-------6-L----6-8----6--|--L----3----3--------------------|
--L\-----------------6-L----6-8----6--|--L-----------------8--L-6-L--3--|
--L\-3----3----3--3--6-L-3--6-8-3--6--|--L-3----3----3-----8--L-6-L--3--|


  E   S  S  S  S  S  S  S  S  S  S Q       S  S  S  S  S  S  S  S H         
----------------------------------------|----------------------------------|
-----11-11-11-10-10-10-10-11-11-11------|----11-11-11-11-10-10-10----------|
-----12-12-12-11-11-11-11-12-12-12------|----12-12-12-12-11-11-11----------|
----------------------------------------|----------------------------------|
----------------------------------------|----------------------------------|
----------------------------------------|----------------------------------|
I may be right I may be wrong

  S S  Q    S S E   E  Q        E  S  E  S  E  S S S  S S E.   
----------------------------|---------------------------------|
----------------------------|---------------------------------|
----------------------------|---------------------------------|
--8-8\------8-8-L\----------|--/8--L-/8--L-/8--L-6------------|
--8-8\------8-8-L\----------|---------------------------------|
--8-8\------8-8-L\----------|----------------------6b-3-8-6---|
But, I feel so good          Cos' youŽre the one

                            PM PM      PM PM                                
  H        H           Q    S  S  Q    S  S  Q       E.  E.  E  E.  E.  E   
--------------------|-----------------------------|------------------------|
--------------------|-----------------------------|--4-------4--3----------|
--------------------|--3----------3----------3----|------3----------3------|
--3--------1--------|--3----------3----------3----|---------------------3--|
--3--------1--------|--1----1--1--1----1--1--1----|------------------------|
--3--------1--------|-----------------------------|------------------------|
   Lay down your love                               Lay it down on me       

     PM     PM       PM                                
  E  S  S S S  S S S S  E  E  E     H        H         
---------------------------------|--------------------|
---------------------------------|--------------------|
---------------------------------|--------------------|
---------------------------------|--3--------1--------|
--6--3--6-8-3--6-L-L-3--3--3--3--|--3--------1--------|
--6--3--6-8-3--6-L-L-3--3--3--3--|--3--------1--------|
                                     Lay down your love

       PM PM      PM PM                                
  Q    S  S  Q    S  S  Q       E.  E.  E  E.  E.  E   
-----------------------------|------------------------|
-----------------------------|--4-------4--3----------|
--3----------3----------3----|------3----------3------|
--3----------3----------3----|---------------------3--|
--1----1--1--1----1--1--1----|------------------------|
-----------------------------|------------------------|
                                 Lay it down on me

    PM   PM   PM PM     PM     PM         PM   PM   PM PM     PM     PM     
  S S  S S  S E  S  S S S  S S S  E     S S  S S  S E  S  S S S  S S S  E   
-------------------------------------|-------------------------------------|
-------------------------------------|-------------------------------------|
-------------------------------------|-------------------------------------|
--L----3----3-------6-L----6-8----6--|--L----3----3-------6-L----6-8----6--|
--------------------6-L----6-8----6--|--L-----------------6-L----6-8----6--|
----3----3----3--3--6-L-3--6-8-3--6--|--L-3----3----3--3--6-L-3--6-8-3--6--|


    PM   PM   PM PM     PM     PM         PM   PM   PM                   
  S S  S S  S E  S  S S S  S S S  E     S S  S S  S E  S E  S S E  E     
-------------------------------------|---------------------------------||
-------------------------------------|---------------------------------||
-------------------------------------|--------------------------------*||
--L----3----3-------6-L----6-8----6--|--L----3----3-------------------*||
--L-----------------6-L----6-8----6--|--L----------------8--L-6-L--3---||
--L-3----3----3--3--6-L-3--6-8-3--6--|--L-3----3----3----8--L-6-L--3---||





Through the dark and windy night,
gonna hold you close
make you feel alright
IŽll never leave you by yourself,
Cause I want you baby an' no one else
Now I canŽt stop this feeling, baby
This feeling deep inside

I may be right
I may be wrong
But I feel so good
Cos' youŽre the one

Lay down your love
Lay it down on me
Lay down your love
Lay it down on me






    PM   PM   PM             PM PM                                          
  S S  S S  S E  S E  S S E  S  S     W                   W                 
-----------------------------------|-------------------|-------------------|
-----------------------------------|-------------------|-------------------|
-----------------------------------|-------------------|-------------------|
--6----3----3----------------------|-------------------|-------------------|
--6----------------8--L-6-L--3--3--|--L----------------|-------------------|
--6-3----3----3----8--L-6-L--3--3--|--L----------------|-------------------|


[SOLO]
  W                   Q.      E   Q      E    E      W                  
-------------------|-----------------------------|---------------------|
-------------------|-----------------------------|---------------------|
-------------------|---------14---L\----10--/14--|---L~----------------|
-------------------|-----------------------------|---------------------|
-------------------|-----------------------------|---------------------|
-------------------|-----------------------------|---------------------|


   Q     Q.      E   Q        Q     H        Q       Q    E   Q    Q     E   
--------------------------|-----------------------|-------------------------|
--------------------------|-----------------------|-------------------------|
---L\-----------10---L----|---L\----5--------L----|--L----------------------|
--------------------------|-----------------------|----------/7----8----10--|
--------------------------|-----------------------|-------------------------|
--------------------------|-----------------------|-------------------------|


    Q     Q      H            Q     H        E    E   
--------------------------|--------------------------|
--------------------------|----------------------10--|
--------------------------|--------------------------|
--/12-----Ls----10--------|---L\-------------8S--10--|
--------------------------|--------------------------|
--------------------------|--------------------------|


   Q     H         E   E       H        Q    E   E    
---------------------------|-------------------------|
---L-----L---------L---Ls--|--11---------------------|
---------------------------|--------------------12b--|
---L-----L---------L---Ls--|--11---------------------|
---------------------------|-------------------------|
---------------------------|-------------------------|


   H           E   E      E   E      H         E   Q.         
---------------------------------|---------------------------|
-----------------------------11--|---L---------L--11pbr------|
---Lpb---------L--12pbr--10------|---------------------------|
---------------------------------|---------------------------|
---------------------------------|---------------------------|
---------------------------------|---------------------------|


   S  S  E   E   E    H             Q     H         S  S  E   
--------------------------------|----------------------------|
--------------------------------|----------------------------|
--13-12-10---L--12b---L~--------|---L~-------------------10--|
--------------------------------|------------------10-12-----|
--------------------------------|----------------------------|
--------------------------------|----------------------------|


   Q.      Q      E      E   E      Q.      H         E     
--------------------------------|--------------------------|
----------------------------11--|---L------13--------13br--|
--10------12b-----Lpbr--10------|--------------------------|
--------------------------------|--------------------------|
--------------------------------|--------------------------|
--------------------------------|--------------------------|


                       |----3----|       |----3---|                        
   H          E    E   E    E    E       E   E    E    E   E    H          
----------------------13~-------13~--|------13~---------------------------|
---L~---------L--/13-------13~-------|--13-------13s--11------------------|
-------------------------------------|--------------------12s--10\--------|
-------------------------------------|------------------------------------|
-------------------------------------|------------------------------------|
-------------------------------------|------------------------------------|


  S S S S E  S S S S E  Q        S S S S E  S  S S S S S Q      
------------------------------|--------------------------------|
------------------------------|--------------------------------|
------------------------------|--------------------------------|
------------------------------|-------------6b-L-3-6-8-3-6~----|
--3-3-3-3----3-3-3-3----3\----|--3-3-3-3-----------------------|
--3-3-3-3----3-3-3-3----3\----|--3-3-3-3-----------------------|


  S S S S E  S  S S S S S Q        S S S S E  S  S S S S S S S S S  
--------------------------------|----------------------------------|
--------------------------------|----------------------------------|
--------------------------------|----------------------------------|
-------------6b-L-3-6-8-3-6~----|-------------6b-L-3-6-8-3-6-8-3-6-|
--3-3-3-3-----------------------|--3-3-3-3-------------------------|
--3-3-3-3-----------------------|--3-3-3-3-------------------------|


  E  S S S S E  S S E  Q       E  S S S S E  S S E  Q     
----------------------------|----------------------------|
----------------------------|----------------------------|
----------------------------|----------------------------|
--6--3-6-8-3-6--L-3-3--3----|--6--3-6-8-3-6--L-3-3--3----|
----------------------------|----------------------------|
----------------------------|----------------------------|


  E  S S S S E  S S E  Q       E  S S S S E  S S E  Q     
----------------------------|----------------------------|
----------------------------|----------------------------|
----------------------------|----------------------------|
--6--3-6-8-3-6--L-3-3--3----|--6--3-6-8-3-6--L-3-3--3----|
----------------------------|----------------------------|
----------------------------|----------------------------|


  E  S E  S E   E  E  Q       E  S E  S E   E  E  Q     
---------------------------|---------------------------|
---------------------------|---------------------------|
---------------------------|---------------------------|
--6--3-8--3-6b--L--3--3----|--6--3-8--3-6b--L--3--3----|
---------------------------|---------------------------|
---------------------------|---------------------------|


  E  S E  S E   E  E  Q       E  S E  S E   E  E  Q     
---------------------------|---------------------------|
---------------------------|---------------------------|
---------------------------|---------------------------|
--6--3-8--3-6b--L--3--3----|--6--3-8--3-6b--L--3--3----|
---------------------------|---------------------------|
---------------------------|---------------------------|


                                               PM       
  E  S E  S E   E  E  Q       E  S E  S E  E.  E  S E   
---------------------------|---------------------------|
---------------------------|---------------------------|
---------------------------|---------------------------|
--6--3-8--3-6b--L--3--3----|--6--3-6--3-8--L---3--8-6--|
---------------------------|---------------------------|
---------------------------|---------------------------|


  S S S S S  S S S E   S S  S S E     E  E  S S E  E   S S  S S E   
-----------------------------------|-------------------------------|
-----------------------------------|-------------------------------|
----------1b-----------------------|-------------------------------|
----1-3------3-1-3-----3------3----|-------------------3------3----|
--3-----3--------------------------|-------------------------------|
-------------------7b----5b-L---3--|--L--3--3-3----7b----5b-L---3--|


          |--3--|                                                      
  S S S S S   S S S S E   S S  S S E     E  E  S S E  E   S S  S S E   
--------------------------------------|-------------------------------|
--------------------------------------|-------------------------------|
----------1br-L-----------------------|-------------------------------|
----1-3---------3-1-3-----3------3----|-------------------3------3----|
--3-----3-----------------------------|-------------------------------|
----------------------7b----5b-L---3--|--L--3--3-3----7b----5b-L---3--|





  W                   H        E   Q.         E   E  H        E  S S  
-------------------|-----------------------|-------------------------|
-------------------|-----------------------|-------------------------|
-------------------|-----------------------|-------------------------|
-------------------|-----------------------|-------------------------|
-------------------|-----------------------|--3\---------------------|
--L----------------|--L--------L---x\------|--3\-----------------6-3-|
All my life IŽve been alone,
looking for somebody
 To call my own                            And I'm still looking baby


  E  S E  S E  S E  S S S S S    E   S  S  S  S  S  S  S  S  S  S Q     
------------------------------|----------------------------------------|
------------------------------|-----11-11-11-10-10-10-10-11-11-11------|
------------------------------|-----12-12-12-11-11-11-11-12-12-12------|
-----3----3----3----3---------|----------------------------------------|
--6----5----3-----------------|----------------------------------------|
-----------------8----6-5-3-1-|----------------------------------------|
                               I may be right I may be wrong 



Make me feel so good
Cos' youŽre the one

Lay down your love
Lay it down on me
Lay down your love
Lay it down on me




Duration Legend
---------------
W - whole
H - half
Q - quarter
E - 8th
S - 16th
T - 32nd
X - 64th
. - note dotted
|-n-|  - n-tuplets


Tablature Legend
----------------
L - tied note
x - dead note
g - grace note
(n) - ghost note
> - accentuded note
NH - natural harmonic
AH - artificial harmonic
TH - tapped harmonic
SH - semi harmonic
PH - pitch harmonic
h - hammer on
p - pull off
b - bend
br - bendRelease
pb - preBend
pbr - preBendRelease
brb - bendReleaseBend
\n/ - tremolo bar dip
\n - tremolo bar dive
-/n - tremolo bar Release up
/n\ - tremolo bar inverted dip
/n - tremolo bar return
-\n - tremolo bar Release down
S - shift slide
s - legato slide
/ -  slide into from below or out of upwards
\ -  slide into from above or out of downwards
~ - vibrato
W - wide vibrato
tr - trill
TP - tremolo picking
T - tapping
S - slap
P - pop
< - fade in
^ - brush up
v - brush down
Tap to rate this tab
# A B C D E F G H I J K L M N O P Q R S T U V W X Y Z