Song name
# A B C D E F G H I J K L M N O P Q R S T U V W X Y Z

Whitesnake - Is This Love tab

Whitesnake. Is this love
                       I believe it is

The whole song minus a solo but some else put up a really good solo for this already

legend. *= natural harmonic. .= Palm mute

Intro  (this also works with the natural harmonics and i think might be how it is on the song)

e|-----------------|
B|-----3--------3--|
G|----0-0---0----0-|
D|---4-----4---4---|
A|--2-----2---3----|
E|-0---------------|

e|--------------------|
B|--------------------|
G|--------------------|
D|--5-4-2-------------|
A|--3-2-0-5-3-33------|
E|--------3-1-11------|


Main body

e|--------==---------|
B|---7*---=-------3--|
G|----7*------0----0-|
D|--7*-------4---4---|
A|----------2---3----|
E|-0-----------------|

e|--------------------|
B|--------------------|
G|--------------------|
D|--5-4-2-------------|
A|--3-2-0-5-3-33------|
E|--------3-1-11------|


Chorus

e|-----------------------------------------|
B|-----------------------------------------|
G|--6-66-6-6666--8-88-8-8888--5-55-5-5555--|
D|--6-66-6-6666--8-88-8-8888--5-55-5-5555--|
A|--4-44-4-4444--4-44-4-4444--3-33-3-3333--|
E|-----------------------------------------|
Pm    ..   ....    ..   ....    ..   ....

e|--------------------|
B|--------------------|
G|--5-4-2-------------|
D|--5-4-2-5-3-33------|
A|--3-2-0-5-3-33------|
E|--------3-1-11------|

Go back to the verse (main body) here and repeat.

Thanks guys, dont forget to comment and rate

Tap to rate this tab
 
# A B C D E F G H I J K L M N O P Q R S T U V W X Y Z