Song name
# A B C D E F G H I J K L M N O P Q R S T U V W X Y Z

Whitesnake - Here I Go Again tab

This file is the author's own work and represents their interpretation of the
song. You may only use this file for private study, scholarship, or research.
This file is the author's own work and represents their interpretation of the
song. You may only use this file for private study, scholarship, or research.


Tabbed by Ira

Whitesnake-Here I Go Again

Intro : Guitar (Acoustic)
    
    Listen to get the strumming !!!
      
   
Eb------------------------------------------------|
Bb--12---10----8----7---8----10---10h12p10----8---|
Gb--12---12----9----9---9----11---12----12----9---|
Db--12---12---10---10---10---12---12----12---10---|
Ab--10---10---10---10---10---12---10----10---10---|
Eb------------------------------------------------|
    				      

Verse  I Don't know where I'm Going.. Slide-up			 	
Eb----0-----------0--------------0-------------0--|
Bb----3-----------3--------------1-------------3--|
Gb----0-----------0--------------0-------------0--|repeat
Db----5-----------4--------------2-------------4--|
Ab----5-----------5--------------3-------------5--|
Eb------------------------------------------------|

   hangin on the promises of songs of yesterday
Eb----3--------------0----------0-----------------|
Bb----0--------------2----------0-----------------|
Gb----0--------------3----------0-----------------|
Db----0--------------0----------2-----------------|
Ab----2--------------0----------2-----------------|
Eb----3--------------2----------0-----------------|

                    and I know what it means
Eb------------------------------------------2-----|
Bb---------------1--------------------------3-----|
Gb---0-----0-----2--------------------------2-----|
Db--2-----0------2--------------------------0-----|
Ab-3-----2-------0--------------------------------|
Eb------------------------------------------------|


I've seen the rest tabbed out good luck. I want to
see an acoustic cover on youtube someone. 
Tap to rate this tab
 
# A B C D E F G H I J K L M N O P Q R S T U V W X Y Z