Song name
# A B C D E F G H I J K L M N O P Q R S T U V W X Y Z

Whitesnake - Here I Go Again tab

Hello guys and gals here's another tab
Pretty fun solo to play have fun xD

Whitesnake
Here I Go Again
Self Titled
1987

e-||-----------------------------------|
B-||-----------8B-8-7-8----------------|
G-||-4-5-7--------------5~-------------|
D-||-------5/7-------------------------|
A-||-----------------------------------|
E-||-----------------------------------|

e-||------------------7---------------------------------|
B-||-------7-8-10B(12)--10-8-10---------10-8B(10)-8-8~--|
G-||-(5)/9----------------------7-----7-----------------|
D-||------------------------------7-7-------------------|
A-||----------------------------------------------------|
E-||----------------------------------------------------|
  (P.M.)                              . . . .

e-||-17B(19)17B(20)-15-17--------------|
B-||----------------------15-----------|
G-||-----------------------------------|
D-||-----------------------------------|
A-||-----------------------------------|
E-||-----------------------------------|

Now for the really fast part you might want to alternate pick these notes xD

e-||--------------------------------------------------------|
B-||--------------------------------------------------------|
G-||---------------------------------------------12-14-16---|
D-||------------------------------------12-14-16------------|
A-||------------------12-14-15-12-14-15---------------------|
E-||-12-14-15-12-14-15--------------------------------------|
     .  .  .  .  .  . .  .  .  .  .  .  .  .  .

e-||----------14-15-17B(19)~-----------|
B-||-13-15-17--------------------------|
G-||-----------------------------------|
D-||-----------------------------------|
A-||-----------------------------------|
E-||-----------------------------------|

:]

Have fun with this one very fun solo
Any questions comments or whatever email me at dr.porkchop.wurd@gmail.com
Tap to rate this tab
 
# A B C D E F G H I J K L M N O P Q R S T U V W X Y Z