Song name
# A B C D E F G H I J K L M N O P Q R S T U V W X Y Z

Whitesnake - Hit An Run tab

e|-3--1--------------------3--1----------------------|
B|------3--1--------------------3--1-----------------|
G|-----------3--0--3--5-3------------3--0------5-----|
D|-----------------3--5-3-----------------3--5---5---|
A|---------------------------------------------------|
E|---------------------------------------------------|

e|-3--1--------------------3--1----------------------|
B|------3--1--------------------3--1-----------------|
G|-----------3--0--3--5-3------------3--0------5-----|
D|-----------------3--5-3-----------------3--5---5---|
A|---------------------------------------------------|
E|---------------------------------------------------|

Online Video Of Song:

http://www.youtube.com/watch?v=nKkFkNtL7KY
Tap to rate this tab
 
# A B C D E F G H I J K L M N O P Q R S T U V W X Y Z