Song name
# A B C D E F G H I J K L M N O P Q R S T U V W X Y Z

Whitesnake - Till The Day I Die tab

 --------------------
* Whitesnake         *
* Till the day i die *
* Come and get it    *
 --------------------

bpm = 100

Intro: A-Guitar


             D                     Cadd9

E ||---------2-----2--2--2-----------3-----3--3--3-------|
B ||---------3-----3--3--3-----------3-----3--3--3-------|
G ||o--------2-----2--2--2-----------0-----0--0--0-------|
D ||o--0-----0-----0--0--0-----------2-----2--2--0-------|
A ||---------------------------3-----3-----3--3--3-------|
E ||-----------------------------------------------------|

        G/B                     D

--------3-----------------------2-----2--2--2-------|
--------3-----------------------3-----3--3--3-------|
--------0-----------------------2-----2--2--2-------|
--------0-----3-----------0-----0-----0--0--0-------|
--2-----2-----------3-------------------------------|
----------------------------------------------------|


-----------3-----------------------3----------------|
-----------3-----------------------3----------------|
--0h-2-----0-----------------------0----------------|
-----------------3-----2-----------------------0L---|
-----------------------------------3----------------|
----------------------------------------------------|

                                                   2x
-----------------------2---------------------------||
-----------------------3---------------------------||
-----------------------2--------------------------o||
--0L-0-----0-----3-----0--------------------------o||
--------------3------------------------------------||
---------------------------------------------------||


Verse 1:

     Dm7

||---5--------0--------0--------0-------------------|
||---6-----------6--------6--------6----------------|
||o--5--------------5--------5--------5-------------|
||o--0----------------------------------------------|
||--------------------------------------------------|
||--------------------------------------------------|

 G/D
                                                 3x
--7--------0--------0--------0---------------------||
--8-----------8--------8--------8------------------||
--7--------------7--------7--------7--------------o||
--0-----------------------------------------------o||
---------------------------------------------------||
---------------------------------------------------||


Chorus:
|

  D    Cadd9        G

||---2-----0--0--0-----3--3--3-----3--3----------|
||---3-----3--3--3-----3--3--3-----3--3----------|
||o--2-----0--0--0-----0--0--0-----0--0----------|
||o--0-----2--2--2-----0--0--0-----0--0----------|
||---------3--3--3-----2--2--2-----2--2----------|
||---------------------3--3--3-----3--3----------|



                                        3x 
--2-----0--0--0-----3--3--3-------------||-------|
--3-----3--3--3-----3--3--3-------------||-------|
--2-----0--0--0-----0--0--0------------o||-------|
--0-----2--2--2-----0--0--0------------o||-------|
--------3--3--3-----2--2--2-------------||-------|
--------------------3--3--3-------------||-------|


||o                           o||
||o Intro / Verse 1 /Chorus 1 o||


Verse 2: E-Guitar

||-----------------------------------------------------|
||-----------------------------------------------------|
||o----------------------------------------------------|
||o--7.-------5.-------7--------5--------7-----5-------|
||---5--------3--------5.-------3.-------5.----3.------|
||-----------------------------------------------------|


----------------------------------------------------|
----------------------------------------------------|
----------------------------------------------------|
--7.-------5.-------7--------5--------7-----5-------|
--5--------3--------5.-------3.-------5.----3.------|
----------------------------------------------------|


----------------------------------------------------|
----------------------------------------------------|
----------------------------------------------------|
--7.-------5.-------7--------5--------7-----5-------|
--5--------3--------5.-------3.-------5.----3.------|
----------------------------------------------------|


----------------------------------------------------|
----------------------------------------------------|
----------------------------------------------------|
--7.-------5.-------7--------5--------7-----5-------|
--5--------3--------5.-------3.-------5.----3.------|
----------------------------------------------------|


----------------------------------------------------|
----------------------------------------------------|
----------------------------------------------------|
----------------------------------------------------|
--5--5--5--5--------------5--5--5--5----------------|
--3--3--3--3--------------3--3--3--3----------------|


----------------------------------------------------|
----------------------------------------------------|
----------------------------------------------------|
--7.-------5.-------7--------5--------7-----5-------|
--5--------3--------5.-------3.-------5.----3.------|
----------------------------------------------------|


----------------------------------------------------|
----------------------------------------------------|
----------------------------------------------------|
----------------------------------------------------|
--5--5--5--5--------------5--5--5--5----------------|
--3--3--3--3--------------3--3--3--3----------------|


----------------------------------------------------|-------|-------|
----------------------------------------------------|-------|-------|
----------------------------------------------------|-------|-------|
--7.-------5.-------7--------5--------7-----5-------|--5----|--7----|
--5--------3--------5.-------3.-------5.----3.------|--3----|--5----|
----------------------------------------------------|-------|-------|

Chorus 2:

----------------------------------------------------|
----------------------------------------------------|
----------------------------------------------------|
--7-----------5--------5----------------------------|
--5-----------3--------3--2--0--------0--2----------|
--------------------------------3-------------------|


----------------------------------------------------|
----------------------------------------------------|
----------------------------------------------------|
--7-----------5--------5----------------------------|
--5-----------3--------3--2--0--------0--2----------|
--------------------------------3-------------------|


----------------------------------------------------|
----------------------------------------------------|
----------------------------------------------------|
--7-----------5--------5----------------------------|
--5-----------3--------3--2--0--------0--2----------|
--------------------------------3-------------------|

                                                4x
------------------------------------------------||
------------------------------------------------||
-----------------------------------------------o||
--7-----------5--------5-----------------------o||
--5-----------3--------3--2--0--------0--2------||
--------------------------------3---------------||

Decrescendo
||o                   o||
||o Verse 2 /Chorus 2 o||


Legend:

L - tied note           x - dead note           h - hammer on/pull off
b - bend                s - slide               ~ - vibrato     
g - ghost note          > - accentuated note    t - trill 
M - palm mute           . - staccato            P - popping (bass)
n - pick stroke down    + - tapping             W - wide vibrato 
< - fade in             w - whammy bar          = - tremolo picking 
v - brush up            ^ - brush down          V - pick stroke up  



whole note - sb - semibreve
  1/2 note - m - minim
  1/4 note - c - crotchet
  8th note - q - quaver
16th note - sq - semiquaver
32nd note - dq - demisemiquaver
64th note - hq - hemidemisemiquaver



Tap to rate this tab
 
# A B C D E F G H I J K L M N O P Q R S T U V W X Y Z