Song name
# A B C D E F G H I J K L M N O P Q R S T U V W X Y Z

Whitesnake - Young Blood tab

tuning:standard
Tabbed by:a crazy teenage rock and roll fan
band:Whitesnake
Album:saints and sinners
year:1982

verse(guitar one)
E|----------------------------------|
B|----------------------------------|
G|-7-----7-----7-----7-----10--9--7-|
D|----------------------------------|
A|---5-5---5-5---5-5---5-5----------|
E|----------------------------------|
repeat this throughout the verse

verse (guitar two (played with guitar one))
E|----------------|
B|----------------|
G|-7--------10--9-|
D|-7--------10--9-|
A|-5--------8---7-|
E|----------------|
reapeat this throughout the verse

pre-chorus
E|----------------------------------------------------------|
B|----------------------------------------------------------|
G|-------------------------------------------------10--7--9-|
D|-------------------------------------------------10--7--9-|
A|-2-2---2-2---2-2---2-------2---------2-2---2-2---8---5--7-|
E|-0-0---0-0---0-0---0-0-2-3---2-0-3---0-0---0-0------------|

chorus
E|----------------------------------------|
B|----------------------------------------|
G|----------------------------------------|
D|-12------10------5------10-5-10-5-12-12-|
A|-12------10------5------10-5-10-5-12-12-|
E|-10------8-------3------8--3-8--3-10-10-|
play this twice

that should do it. just repeat all these riffs for the rest of the song. 

KEEP ROCK AND ROLL ALIVE!!!!!!!
Tap to rate this tab
# A B C D E F G H I J K L M N O P Q R S T U V W X Y Z