Song name
# A B C D E F G H I J K L M N O P Q R S T U V W X Y Z

Whitesnake - Walking In The Shadows Of The Blues tab

                                Whitesnake

                      Walking In The Shadows Of The Blues


Tabbed by Stephen Carass\Quaver


Yo, this song is pretty hard, there again its quite easy cuz of its actual riff, its the 
solo lol. Just bare with me.
Enjoy


Intro:

Note: Both guitars

        G5

E----------------|
B----------------|
G----------------|
D----------------|   X16
A---5-555---555--|
E---3-333---333--|


PM---------------|


Bridge/Post Chorus:


Guitar 1:

   G5      C5                         A#5   A5

E--------|----------|             E---------------|
B--------|----------|             B---------------|
D--------|----------|             G---------------|
G--------|--5-------|    X3       D---------------|
A---5\---|--3-------|             A-----8---7\----|
E---3\---|----------|             E-----6---5\----|


Guitar 2:

   G5       C5                         A#5   A5

E--------|-----------|            E---------------|
B--------|--18^~~~---|            B---------------|
G--------|-----------|            G---------------|
D--------|-----------|   X3       D------8---7\---|
A---5\---|-----------|            A---------------|
E---3\---|-----------|            E---------------|

Verse 1:

Note: Guitar 2 plays chords above the tab

   G5 Bb5 C5      G5 Bb5 C5 Bb5     Bb5 C5  G5

E--------------|-----------------|---------------|
B--------------|-----------------|---------------|
D-------3--5---|-------3--5--3---|---3---5-------|
G---5---3--5---|---5---3--5--3---|---3---5---5---|      X2
A---5----------|---5-------------|-----------5---|
E--------------|-----------------|---------------|

     C5                     C5

E-------------|         E---------|
B-------------|         B---------|
G-------------|         G---------|
D---5-557-55--|    X4   D---5\----|
A---3-333-33--|         A---3\----|
E-------------|         E---------|

   G5      C5

E--------|----------|
B--------|----------|
D--------|----------|
G--------|--5-------|    X2
A---5\---|--3-------|
E---3\---|----------|


     C5                     C5

E-------------|         E---------|
B-------------|         B---------|
G-------------|         G---------|
D---5-557-55--|    X4   D---5\----|
A---3-333-33--|         A---3\----|
E-------------|         E---------|


   Bb5  F5   G5

E-----------------|
B-----------------|
G-----------------|
D---3---------5---|
A---1----3----3---|
E--------1--------|

1st Chorus :

Note: Guitar 2 still does chords above and im not sure that the C chord is played at 
part on the neck it might be 3rd fret on A, still it sounds oki, remember make the chord 
alot, infact as much as you can make it chime.
           C5

E----------------------|
B----8-----------------|
G----9-----------------|
D----10----------------|
A----10----------------|
E----------------------|

Bridge/Post Chorus:


Guitar 1:

   G5      C5                         A#5   A5

E--------|----------|             E---------------|
B--------|----------|             B---------------|
D--------|----------|             G---------------|
G--------|--5-------|    X3       D---------------|
A---5\---|--3-------|             A-----8---7\----|
E---3\---|----------|             E-----6---5\----|

Guitar 2:

   G5       C5                         A#5   A5

E--------|-----------|            E---------------|
B--------|--18^~~~---|            B---------------|
G--------|-----------|            G---------------|
D--------|-----------|   X3       D------8---7\---|
A---5\---|-----------|            A---------------|
E---3\---|-----------|            E---------------|

Verse 2:

   G5 Bb5 C5      G5 Bb5 C5 Bb5     Bb5 C5  G5

E--------------|-----------------|---------------|
B--------------|-----------------|---------------|
D-------3--5---|-------3--5--3---|---3---5-------|
G---5---3--5---|---5---3--5--3---|---3---5---5---|      X2
A---5----------|---5-------------|-----------5---|
E--------------|-----------------|---------------|

      C5                     C5

E-------------|         E---------|
B-------------|         B---------|
G-------------|         G---------|
D---5-557-55--|    X4   D---5\----|
A---3-333-33--|         A---3\----|
E-------------|         E---------|

   G5      C5

E--------|----------|
B--------|----------|
D--------|----------|
G--------|--5-------|    X2
A---5\---|--3-------|
E---3\---|----------|


      C5                     C5

E-------------|         E---------|
B-------------|         B---------|
G-------------|         G---------|
D---5-557-55--|    X4   D---5\----|
A---3-333-33--|         A---3\----|
E-------------|         E---------|
    

   Bb5  F5   G5

E-----------------|
B-----------------|
G-----------------|
D---3---------5---|
A---1----3----3---|
E--------1--------|

Bridge/Post Chorus:


Guitar 1:

   G5      C5                         A#5   A5

E--------|----------|             E---------------|
B--------|----------|             B---------------|
D--------|----------|             G---------------|
G--------|--5-------|    X3       D---------------|
A---5\---|--3-------|             A-----8---7\----|
E---3\---|----------|             E-----6---5\----|

Guitar 2:

   G5       C5                         A#5   A5

E--------|-----------|            E---------------|
B--------|--18^~~~---|            B---------------|
G--------|-----------|            G---------------|
D--------|-----------|   X3       D------8---7\---|
A---5\---|-----------|            A---------------|
E---3\---|-----------|            E---------------|

Interlude:

Note: Both Guitars

     G5                  A#5                  F5

E---------|        E----------|         E----------|
B---------|        B----------|         B----------|
G---------|        G----------|         G----------|
D---------|  X4    D----------|   X4    D----------|    X4
A----555--|        A-----888--|         A-----333--|
E----333--|        E-----666--|         E-----111--|

E----------|        E----------|
B----------|        B----------|
G----------|        G----------|
D-----555--|  X2    D-----777--|   X2
A-----333--|        A-----555--|
E----------|        E----------|


     G5                  A#5                  F5

E----------|        E----------|         E----------|
B----------|        B----------|         B----------|
G----------|        G----------|         G----------|
D----------|  X4    D----------|   X2    D----------|    X2
A-----555--|        A-----888--|         A-----333--|
E-----333--|        E-----666--|         E-----111--|

E----------|
B----------|
G----------|
D---5------|
A---3------|
E----------|


3rd Chorus:

                  C5


E-----------------------------------|
B-----------------------------------|
G---0--3--0--3~p0---------3-0-------|
D-----------------3~--0--------5~---|
A-----------------------------------|
E-----------------------------------|

Solo:

Note: This solo is pretty easy, just hard to remember. I think its near perfect, but i 
there is a couple of things wrong, but Hey... its close.


E-------------------------|------------|-----------------------------|
B---15^--15^--15^--15^----|--------13^-|-----------------------------|
G---14^--14^--14^--14^----|---12~------|---12--(12)p10---------------|
D-------------------------|------------|---------------12--(12)p10---|
A-------------------------|------------|-----------------------------|
E-------------------------|------------|-----------------------------|

E-------------------|------------------|---------------|-------|-------|
B-------------------|------------------|---------------|-------|-------|
G-------------------|------------------|--Gradual-bend-|-------|-------|
D-------------------|------------------|---------------|--5--5-|--7-5--|
A---12--10----------|------------------|--7^-----------|-------|-------|
E-----------13--10--|--8---6---3--3--3\|---------------|-------|-------|

E---------|---------------------|-----------------------------|
B---------|----------10--11--13-|--11p10--11p10---------------|
G---------|---10--12------------|----------------12--12----12-|
D---3--5--|---------------------|-----------------------------|
A---------|---------------------|-----------------------------|
E---------|---------------------|-----------------------------|


E---11^--11~--|--11--8--11^-11~---|--11--8----------------|
B-------------|-------------------|--------11--8----------|
G-------------|-------------------|--------------11p10p8--|
D-------------|-------------------|-----------------------|
A-------------|-------------------|-----------------------|
E-------------|-------------------|-----------------------|


E--pick-up-and-down---|----10h13p10-----|-------|
B---------------------|-13----------13--|-------|
G---7--7--7-----7~----|-----------------|--12~~-|
D---------------------|-----------------|-------|
A---------------------|-----------------|-------|
E---------------------|-----------------|-------|


E----------------------------------------------------------|
B-----15h18p15-----15h18p15-----15h18p15----15h18p15-------|
G---17^----------17^----------17^---------17^---------17^--|
D----------------------------------------------------------|
A----------------------------------------------------------|
E----------------------------------------------------------|


E---15h18p15h18p15h18p15-------------------------------------------|
B-----------------------15h18p15h18p15h18p15-----------------------|
G--------------------------------------------15h17p15h17p15h17p15--|
D------------------------------------------------------------------|
A-----Super-Fast-Now-----------------------------------------------|
E------------------------------------------------------------------|


E-------------|----------------------------|
B-------------|--------------------18^~~~--|
G-------------|---17^--17p15h17~-15--------|
D--15h17~-----|----------------------------|
A-------------|----------------------------|
E-------------|----------------------------|

E---------------------|
B----18--17--15-------|
G----------------15---|
D---------------------|
A---------------------|
E---Volume-Low--------|


2nd type Bridge/Post Chorus :


Guitar 1:

   G5      C5           G5     D5            G5

E--------|----------|--------|----------|--------|----------|
B--------|----------|--------|----------|--------|----------|
D--------|----------|--------|----------|--------|----------|
G--------|--5-------|--------|--7-------|--------|--5-------|
A---5\---|--3-------|---5\---|--5-------|---5\---|--3-------|
E---3\---|----------|---3\---|----------|---3\---|----------|

       A#5  A5

E---------------|
B---------------|
G---------------|
D---------------|
A-------8---7---|
E-------6---5---|

Guitar 2:

   G5       C5           G5        D5         G5        C5

E--------|-----------|--------|--20^~~~---|--------|-----------|
B--------|--18^~~~---|--------|-----------|--------|--18^~~~---|
G--------|-----------|--------|-----------|--------|-----------|
D--------|-----------|--------|-----------|--------|-----------|
A---5\---|-----------|---5\---|-----------|---5\---|-----------|
E---3\---|-----------|---3\---|-----------|---3\---|-----------|

       A#5  A5

E---------------|
B---------------|
G---------------|
D-------8---7---|
A---------------|
E---------------|

Verse 3:

Note: A 3rd guitar Joins in on this song playing fills


   G5 Bb5 C5      G5 Bb5 C5 Bb5     Bb5 C5  G5

E--------------|-----------------|---------------|
B--------------|-----------------|---------------|
D-------3--5---|-------3--5--3---|---3---5-------|
G---5---3--5---|---5---3--5--3---|---3---5---5---|      X2
A---5----------|---5-------------|-----------5---|
E--------------|-----------------|---------------|


Fill 1:           Fill 2:


E---8p5----8^-|---8^--8^--8^--8p5--------8^-|
B-------8-----|-------------------8~~~------|
G-------------|-----------------------------|
D-------------|-----------------------------|
A-------------|-----------------------------|
E-------------|-----------------------------|

     C5                     C5

E-------------|         E---------|
B-------------|         B---------|
G-------------|         G---------|
D---5-557-55--|    X4   D---5\----|
A---3-333-33--|         A---3\----|
E-------------|         E---------|



   G5      C5

E--------|----------|
B--------|----------|
D--------|----------|
G--------|--5-------|    X2
A---5\---|--3-------|
E---3\---|----------|

Fill 3:

E--------------------|
B---8p5--------------|
G-------8p5----------|
D------------8p7^p5~-|
A--------------------|
E--------------------|


     C5                     C5

E-------------|         E---------|
B-------------|         B---------|
G-------------|         G---------|
D---5-557-55--|    X4   D---5\----|
A---3-333-33--|         A---3\----|
E-------------|         E---------|
      

   Bb5  F5   G5

E-----------------|
B-----------------|
G-----------------|
D---3---------5---|
A---1----3----3---|
E--------1--------|


Fill 4:


E---8^--8p6h8--6-----|
B----------------8---|
G--------------------|
D--------------------|
A--------------------|
E--------------------|

Final Chorus:

Note: Last time this played it is slowed down, guitar 2 plays chords


              C5                      G5  Bb5 C5

E-----------------------------------|--------------------|
B-----------------------------------|--------------------|
G---0--3--0--3~p0---------3-0-------|--------------------|
D-----------------3~--0--------5~---|------3---5---------|
A-----------------------------------|--5---1---3---------|
E-----------------------------------|--3-----------------|


E-----------------------------------|
B-----------------------------------|
G---0--3--0--3~p0---------3-0-------|
D-----------------3~--0-------------|
A-----------------------------------|
E-----------------------------------|

Ending:

Note: sorry i didnt have time to work out the last fill, just improvise or you can find 
out.

  G5


E-----------------------------------------|
B-----------------------------------------|
G-----------------------------------------|
D-----------------------------------------|
A--5--------------------------------------|
E--3--------------------------------------|

Cya


                                 THE END


Hope you enjoy this tab, its taken me 4 hours to write it up and i tabbed it as i went a 
please tell me this write or i will destroy my guitar on my head.
Tap to rate this tab
# A B C D E F G H I J K L M N O P Q R S T U V W X Y Z