Song name
# A B C D E F G H I J K L M N O P Q R S T U V W X Y Z

Whitest Kids U Know - God Wants You To Wear A Hat tab

-----------------------------------------------------------------------------
           God Wants You To Wear A Hat - Whitest Kids U Know
-----------------------------------------------------------------------------
Tabbed by:Snowman
Help From:Tony (Friend)
E-mail:Porkchop_wkuk@hotmail.com

Haven't seen these tabs around so I decide to put them up myself, hope you appreciate it 
and lemme know for any mistakes you may find. :)

Tuning:Standard

(Intro)
e|--------------|---------------------------------------|--------------------|
B|--------------|---------------------------------------|--------------------|
G|--------------|---------------------------------------|X8------------------|
D|--------------|---------------------------------------|--------------------|
A|--------------|---------------------------------------|--------------------|
E|--b4br--------|00030--00030--00030--00030--000--b4br--|--------------------|

(Chorus)
e|---------------------------------------------------------------------------|
B|---------------------------------------------------------------------------|
G|---------------------------------------------------------------------------|
D|---------------------------------------------------------------------------|
A|--10\9\8---10\9\8---10\9\8---------8---7\5---------------------------------|
E|--8-\7\6---8-\7\6---8-\7\6---------6---5\3---------------------------------|
     (slow)

(Solo)
e|------------------------------------------------|--------------------------|
B|-----12-------11-------10-----------------------|--------------------------|
G|--999--9---999--9---999--9---999-12-9---99--10--|X2------------------------|
D|------------------------------------------------|--------------------------|
A|------------------------------------------------|--------------------------|
E|------------------------------------------------|--------------------------|

(Riff)
e|-----------------------------------------|---------------------------------|
B|-----------------------------------------|---------------------------------|
G|-----------------------------------------|X6-------------------------------|
D|-----------------------------------------|---------------------------------|
A|-----------------------------------------|---------------------------------|
E|--00030--00030--00030--00030--000--b4br--|---------------------------------|

(Bridge)    ("You! Where's Your Hat?")
e|----------------------------|----------------------------------------------|
B|----------------------------|----------------------------------------------|
G|----------------------------|----------------------------------------------|
D|----------------------------|X2--------------------------------------------|
A|--8\6---8\6---8\6---10-9-7--|--------------8\6---8\6---10-\-9-\-7----------|
E|--6\4---6\4---6\4---8--7-5--|--------------6\4---6\4---8--\-7-\-5----------|

(Outro)
e|-----------------------|--------------|------------------------------------|
B|-----------------------|--------------|------------------------------------|
G|-----------------------|--------------|------------------------------------|
D|-----------------------|X3------------|------------------------------------|
A|--8-7--8-7--8-7--8-11--|-----8--7\5---|--10\9\8---10\9\8---10\9\8---8-7\5--|
E|--6-5--6-5--6-5--6-9---|-----6--5\3---|--8-\7\6---8-\7\6---8-\7\6---6-5\3--|
   Lightning Lightning    If you don't wanna                    (CHORUS)
    Lightning Lightning     piss off God  
                            remember that!
************************************

| /   slide up
| \   slide down
| h   hammer-on
| p   pull-off
| ~   vibrato
| +   harmonic
| x   Mute note
| b   Bend
| pb  Pre-bend
| br  Bend release
| pbr Pre-bend release
| brb Bend release bend

************************************
Tap to rate this tab
# A B C D E F G H I J K L M N O P Q R S T U V W X Y Z