Song name
# A B C D E F G H I J K L M N O P Q R S T U V W X Y Z

Whitlams - I Will Not Go Quietly Duffys Song tab

-------------------------------------------------------------------------------
             I Will Not Go Quietly (Duffy's Song)- The Whitlams
-------------------------------------------------------------------------------
Tabbed by:Anson93
Email:maccadonald93@hotmail.com

Tuning: Standard (E B G D A E)

In the intro, verse and outro when you play Am, you can play Ab if you want. The chord is shown 

below.
It's hard to tell on the recording which chord but I think some instruments play Ab and some play 

Am.

  Ab

E|-4-|
B|-4-|
G|-5-|
D|-6-|
A|-6-|
E|-4-|


Intro: (0:01)

  Rhythm

  C       Am/F#    F       Am  G

       do do do do     do do do do  
E|--------0-0-0x0x|1-1-1x1x5-5x3-3x|
B|5-5-5x5x1-1-1x1x|1-1-1x1x5-5x3-3x|
G|5-5-5x5x2-2-2x2x|2-2-2x2x5-5x4-4x|
D|5-5-5x5x2-2-2x2x|3-3-3x3x7-7x5-5x|
A|3-3-3x3x0-0-0x0x|3-3-3x3x7-7x5-5x|
E|--------2-2-2x2x|1-1-1x1x5-5x3-3x|


Chorus: (0:08)

  Rhythm

  C       Am/F#    F       Am  G    C       Am/F#    F       Am  G

    I will not...    I will not...    Gonna live...    Before I...
E|--------0-0-0x0x|1-1-1x1x5-5x3-3x|--------0-0-0x0x|1-1-1x1x5-5x3-3x|
B|5-5-5x5x1-1-1x1x|1-1-1x1x5-5x3-3x|5-5-5x5x1-1-1x1x|1-1-1x1x5-5x3-3x|
G|5-5-5x5x2-2-2x2x|2-2-2x2x5-5x4-4x|5-5-5x5x2-2-2x2x|2-2-2x2x5-5x4-4x|
D|5-5-5x5x2-2-2x2x|3-3-3x3x7-7x5-5x|5-5-5x5x2-2-2x2x|3-3-3x3x7-7x5-5x|
A|3-3-3x3x0-0-0x0x|3-3-3x3x7-7x5-5x|3-3-3x3x0-0-0x0x|3-3-3x3x7-7x5-5x|
E|--------2-2-2x2x|1-1-1x1x5-5x3-3x|--------2-2-2x2x|1-1-1x1x5-5x3-3x|


Verse: (0:22)

  Rhythm

  Em      Am       F       C   C/B  Em      Am       F       C  Bb F 

     I was the...     on the days...   You can all...  talking'...
E|0-00-00-0-00-00-|1-11-11---------|0-00-00-0-00-00-|1-11-11-------1-|----|
B|0-00-00-1-11-11-|1-11-11-5---5---|0-00-00-1-11-11-|1-11-11-5--3--1-|----|
G|0-00-00-2-22-22-|2-22-22-5---5---|0-00-00-2-22-22-|2-22-22-5--3--2-|----|
D|2-22-22-2-22-22-|3-33-33-5---5---|2-22-22-2-22-22-|3-33-33-5--3--3-|----|
A|2-22-22-0-00-00-|3-33-33-3---2---|2-22-22-0-00-00-|3-33-33-3--1--3-|----|
E|0-00-00---------|1-11-11---------|0-00-00---------|1-11-11-------1-|----|
 |                                                                        |
 |Lead                                                                    |
 |                                                                        |
E|5--4---0---3---1|----------------|5--4---0---3---1|----------------|----|
B|----------------|----------------|----------------|----------------|----|
G|----------------|----------------|----------------|----------------|----|
D|----------------|----------------|----------------|----------------|----|
A|----------------|----------------|----------------|----------------|----|
E|----------------|----------------|----------------|----------------|----|


Chorus: (0:37)

  Rhythm

  C       Am/F#    F       Am  G    C       Am/F#    F       Am  G

     I will not...   I will not...   It's not for...  Not for you...
E|--------0-0-0x0x|1-1-1x1x5-5x3-3x|--------0-0-0x0x|1-1-1x1x5-5x3-3x|
B|5-5-5x5x1-1-1x1x|1-1-1x1x5-5x3-3x|5-5-5x5x1-1-1x1x|1-1-1x1x5-5x3-3x|
G|5-5-5x5x2-2-2x2x|2-2-2x2x5-5x4-4x|5-5-5x5x2-2-2x2x|2-2-2x2x5-5x4-4x|
D|5-5-5x5x2-2-2x2x|3-3-3x3x7-7x5-5x|5-5-5x5x2-2-2x2x|3-3-3x3x7-7x5-5x|
A|3-3-3x3x0-0-0x0x|3-3-3x3x7-7x5-5x|3-3-3x3x0-0-0x0x|3-3-3x3x7-7x5-5x|
E|--------2-2-2x2x|1-1-1x1x5-5x3-3x|--------2-2-2x2x|1-1-1x1x5-5x3-3x|

Verse: (0:51)

  Rhythm

  Em      Am       F       C   C/B  Em      Am       F       C  Bb F 

     I was the...     on the days...   You can all...  talking'...
E|0-00-00-0-00-00-|1-11-11---------|0-00-00-0-00-00-|1-11-11-------1-|----|
B|0-00-00-1-11-11-|1-11-11-5---5---|0-00-00-1-11-11-|1-11-11-5--3--1-|----|
G|0-00-00-2-22-22-|2-22-22-5---5---|0-00-00-2-22-22-|2-22-22-5--3--2-|----|
D|2-22-22-2-22-22-|3-33-33-5---5---|2-22-22-2-22-22-|3-33-33-5--3--3-|----|
A|2-22-22-0-00-00-|3-33-33-3---2---|2-22-22-0-00-00-|3-33-33-3--1--3-|----|
E|0-00-00---------|1-11-11---------|0-00-00---------|1-11-11-------1-|----|
 |                                                                        |
 |Lead                                                                    |
 |                                                                        |
E|5--4---0---3---1|----------------|5--4---0---3---1|----------------|----|
B|----------------|----------------|----------------|----------------|----|
G|----------------|----------------|----------------|----------------|----|
D|----------------|----------------|----------------|----------------|----|
A|----------------|----------------|----------------|----------------|----|
E|----------------|----------------|----------------|----------------|----|


Break: (1:07)

  Lead

      I was my...  Can y'all...         I was my...  Can y'all...    
E|----------------|----------------|----------------|----------------|
B|----------------|----------------|----------------|----------------|
G|----------------|---7--7/9-7--7/9|----------------|---7--7/9-7--7/9|
D|---5/7\5/7\5/7\5|-10-10-----10---|-------5/7\5/7\5|-10-10-----10---|
A|continue sliding|----------------|continue sliding|----------------|
E|----------------|----------------|----------------|----------------|

  Lead

      I was my...   Yeah I was...
E|----------------|--------|----------------|
B|----------------|--------|----------------|
G|----------------|--------|----------5-----|
D|---5/7\5/7\5/7\5|--------|----------------|
A|continue sliding|--------|-------5/7-7p5\3|
E|----------------|--------|----------------|
 |                                          |
 |Rhythm                                    |
 |                                          |
E|----------------|--------|----------------|
B|----------------|--------|5-5-5-5-5-5-5-5-|
G|----------------|--------|5-5-5-5-5-5-5-5-|
D|----------------|--------|5-5-5-5-5-5-5-5-|
A|----------------|--------|3-3-3-3-3-3-3-3-|
E|----------------|--------|----------------|


Chorus: (1:30)

  Rhythm

  C       Am/F#    F       Am  G    C       Am/F#    F       Am  G

       do do do do     do do do do       do do do do     do do do do  
E|--------0-0-0x0x|1-1-1x1x5-5x3-3x|--------0-0-0x0x|1-1-1x1x5-5x3-3x|
B|5-5-5x5x1-1-1x1x|1-1-1x1x5-5x3-3x|5-5-5x5x1-1-1x1x|1-1-1x1x5-5x3-3x|
G|5-5-5x5x2-2-2x2x|2-2-2x2x5-5x4-4x|5-5-5x5x2-2-2x2x|2-2-2x2x5-5x4-4x|
D|5-5-5x5x2-2-2x2x|3-3-3x3x7-7x5-5x|5-5-5x5x2-2-2x2x|3-3-3x3x7-7x5-5x|
A|3-3-3x3x0-0-0x0x|3-3-3x3x7-7x5-5x|3-3-3x3x0-0-0x0x|3-3-3x3x7-7x5-5x|
E|--------2-2-2x2x|1-1-1x1x5-5x3-3x|--------2-2-2x2x|1-1-1x1x5-5x3-3x|

  Rhythm

  C       Am/F#    F       Am  G    C       Am/F#    F       Am  G

     I don't...       I don't...       I believe...   John Lennon...
E|--------0-0-0x0x|1-1-1x1x5-5x3-3x|--------0-0-0x0x|1-1-1x1x5-5x3-3x|
B|5-5-5x5x1-1-1x1x|1-1-1x1x5-5x3-3x|5-5-5x5x1-1-1x1x|1-1-1x1x5-5x3-3x|
G|5-5-5x5x2-2-2x2x|2-2-2x2x5-5x4-4x|5-5-5x5x2-2-2x2x|2-2-2x2x5-5x4-4x|
D|5-5-5x5x2-2-2x2x|3-3-3x3x7-7x5-5x|5-5-5x5x2-2-2x2x|3-3-3x3x7-7x5-5x|
A|3-3-3x3x0-0-0x0x|3-3-3x3x7-7x5-5x|3-3-3x3x0-0-0x0x|3-3-3x3x7-7x5-5x|
E|--------2-2-2x2x|1-1-1x1x5-5x3-3x|--------2-2-2x2x|1-1-1x1x5-5x3-3x|
 |                                                                   |
 |Lead                                                               |
 |                                                                   |
E|----------------|----------------|----------------|----------------|
B|----------------|----------------|----------------|----------------|
G|----------------|----------------|----------------|-------------13b|
D|----------------|----------------|----------------|bend carries on |
A|----------------|----------------|----------------|to next bar     |
E|----------------|----------------|----------------|----------------|



Solo: (1:58)

  Rhythm

  Ab              Am               Bb              Am               

E|4---4---4-x-4-x-5---5---5-x-5-x-|6---6---6-x-6-x-5---5---5-x-5-x-|
B|4---4---4-x-4-x-5---5---5-x-5-x-|6---6---6-x-6-x-5---5---5-x-5-x-|
G|5---5---5-x-5-x-5---5---5-x-5-x-|7---7---7-x-7-x-5---5---5-x-5-x-|
D|6---6---6-x-6-x-7---7---7-x-7-x-|8---8---8-x-8-x-7---7---7-x-7-x-|
A|6---6---6-x-6-x-7---7---7-x-7-x-|8---8---8-x-8-x-7---7---7-x-7-x-|
E|4---4---4-x-4-x-5---5---5-x-5-x-|6---6---6-x-6-x-5---5---5-x-5-x-|
 |                                                                 |
 |                                       hold bend                 |
 |Lead                                  ___________                |
 |                                     |           |               |
E|--------------------------------|--------12--12------------------|
B|---------12---------------------|--------------------------------|
G|14b13b14------13b14-------------|----13b14-14--14b13-------------|
D|-------------------14-----------|--14----------------------------|
A|keep bending-----------15--12---|--------------------------------|
E|those two notes-----------------|--------------------------------|

  Rhythm

  Bm              C                Dm              E

E|2---2---2-x-2-x-3---3---3-x-3-x-|5---5---5-x-5-x-0---0---0-x-0-x-|
B|3---3---3-x-3-x-5---5---5-x-5-x-|6---6---6-x-6-x-0---0---0-x-0-x-|
G|4---4---4-x-4-x-5---5---5-x-5-x-|7---7---7-x-7-x-1---1---1-x-1-x-|
D|4---4---4-x-4-x-5---5---5-x-5-x-|7---7---7-x-7-x-2---2---2-x-2-x-|
A|2---2---2-x-2-x-3---3---3-x-3-x-|5---5---5-x-5-x-2---2---2-x-2-x-|
E|--------------------------------|----------------0---0---0-x-0-x-|
 |                                                                 |
 |Lead                                                             |
 |                                                                 |
E|--------------------------------|--------------------------------|
B|---------12---------------------|--------------------------------|
G|14b13b14------13b14-------------|--------12--14------------------|
D|-------------------14-----------|----15------------------12--14--|
A|keep bending-----------15--12---|--------------------15----------|
E|those two notes-----------------|--------------------------------|

Verse: (2:12)

  Rhythm

  Em      Am       F       C   C/B  Em      Am       F       C  Bb F 

     I was the...     on the days...   You can all...  talking'...
E|0-00-00-0-00-00-|1-11-11---------|0-00-00-0-00-00-|1---1---------1-|----|
B|0-00-00-1-11-11-|1-11-11-5---5---|0-00-00-1-11-11-|1---1---5--3--1-|----|
G|0-00-00-2-22-22-|2-22-22-5---5---|0-00-00-2-22-22-|2---2---5--3--2-|----|
D|2-22-22-2-22-22-|3-33-33-5---5---|2-22-22-2-22-22-|3---3---5--3--3-|----|
A|2-22-22-0-00-00-|3-33-33-3---2---|2-22-22-0-00-00-|3---3---3--1--3-|----|
E|0-00-00---------|1-11-11---------|0-00-00---------|1---1---------1-|----|
 |                                                                        |
 |Lead                                                                    |
 |                                                                        |
E|5--4---0---3---1|----------------|5--4---0---3---1|----------------|----|
B|----------------|----------------|----------------|----------------|----|
G|----------------|----------------|----------------|----------------|----|
D|----------------|----------------|----------------|----------------|----|
A|----------------|----------------|----------------|----------------|----|
E|----------------|----------------|----------------|----------------|----|


Break: (2:28)

  Lead

    I was my...    Can y'all...       I was my...    Can y'all...    
E|----------------|----------------|----------------|----------------|
B|----------------|----------------|----------------|----------------|
G|----------------|---7--7/9-7--7/9|----------------|---7--7/9-7--7/9|
D|---5/7\5/7\5/7\5|-10-10-----10---|-------5/7\5/7\5|-10-10-----10---|
A|continue sliding|----------------|continue sliding|----------------|
E|----------------|----------------|----------------|----------------|

  Lead

      I was my...    Yeah I was the...
E|----------------|--------|----------------|
B|----------------|--------|----------------|
G|----------------|--------|----------5-----|
D|---5/7\5/7\5/7\5|--------|----------------|
A|continue sliding|--------|-------5/7-7p5\3|
E|----------------|--------|----------------|
 |                                          |
 |Rhythm                                    |
 |                                          |
E|----------------|--------|----------------|
B|----------------|--------|5-5-5-5-5-5-5-5-|
G|----------------|--------|5-5-5-5-5-5-5-5-|
D|----------------|--------|5-5-5-5-5-5-5-5-|
A|----------------|--------|3-3-3-3-3-3-3-3-|
E|----------------|--------|----------------|


Chorus (2:51)

  Rhythm

  C       Am/F#    F       Am  G    C       Am/F#    F       Am  G

       do do do do     do do do do       do do do do     do do do do  
E|--------0-0-0x0x|1-1-1x1x5-5x3-3x|--------0-0-0x0x|1-1-1x1x5-5x3-3x|
B|5-5-5x5x1-1-1x1x|1-1-1x1x5-5x3-3x|5-5-5x5x1-1-1x1x|1-1-1x1x5-5x3-3x|
G|5-5-5x5x2-2-2x2x|2-2-2x2x5-5x4-4x|5-5-5x5x2-2-2x2x|2-2-2x2x5-5x4-4x|
D|5-5-5x5x2-2-2x2x|3-3-3x3x7-7x5-5x|5-5-5x5x2-2-2x2x|3-3-3x3x7-7x5-5x|
A|3-3-3x3x0-0-0x0x|3-3-3x3x7-7x5-5x|3-3-3x3x0-0-0x0x|3-3-3x3x7-7x5-5x|
E|--------2-2-2x2x|1-1-1x1x5-5x3-3x|--------2-2-2x2x|1-1-1x1x5-5x3-3x|

Rhythm

  C       Am/F#    F       Am  G    C       Am/F#    F       Am  G

     I will not...     do do do do   I will not...   I will not...
E|--------0-0-0x0x|1-1-1x1x5-5x3-3x|--------0-0-0x0x|1-1-1x1x5-5x3-3x|
B|5-5-5x5x1-1-1x1x|1-1-1x1x5-5x3-3x|5-5-5x5x1-1-1x1x|1-1-1x1x5-5x3-3x|
G|5-5-5x5x2-2-2x2x|2-2-2x2x5-5x4-4x|5-5-5x5x2-2-2x2x|2-2-2x2x5-5x4-4x|
D|5-5-5x5x2-2-2x2x|3-3-3x3x7-7x5-5x|5-5-5x5x2-2-2x2x|3-3-3x3x7-7x5-5x|
A|3-3-3x3x0-0-0x0x|3-3-3x3x7-7x5-5x|3-3-3x3x0-0-0x0x|3-3-3x3x7-7x5-5x|
E|--------2-2-2x2x|1-1-1x1x5-5x3-3x|--------2-2-2x2x|1-1-1x1x5-5x3-3x|

Rhythm

  C       Am/F#    F       Am  G    C       Am/F#    F       Am  G

     I don't...       I don't         I will not...   I will not...
E|--------0-0-0x0x|1-1-1x1x5-5x3-3x|--------0-0-0x0x|1-1-1x1x5-5x3-3x|
B|5-5-5x5x1-1-1x1x|1-1-1x1x5-5x3-3x|5-5-5x5x1-1-1x1x|1-1-1x1x5-5x3-3x|
G|5-5-5x5x2-2-2x2x|2-2-2x2x5-5x4-4x|5-5-5x5x2-2-2x2x|2-2-2x2x5-5x4-4x|
D|5-5-5x5x2-2-2x2x|3-3-3x3x7-7x5-5x|5-5-5x5x2-2-2x2x|3-3-3x3x7-7x5-5x|
A|3-3-3x3x0-0-0x0x|3-3-3x3x7-7x5-5x|3-3-3x3x0-0-0x0x|3-3-3x3x7-7x5-5x|
E|--------2-2-2x2x|1-1-1x1x5-5x3-3x|--------2-2-2x2x|1-1-1x1x5-5x3-3x|

Rhythm

  C       Am/F#    F       Am  G    C       Am/F#    F       Am  G

    I will not...     not behave...   I will not...     yeah yeah
E|--------0-0-0x0x|1-1-1x1x5-5x3-3x|--------0-0-0x0x|1-1-1x1x5-5x3-3x|
B|5-5-5x5x1-1-1x1x|1-1-1x1x5-5x3-3x|5-5-5x5x1-1-1x1x|1-1-1x1x5-5x3-3x|
G|5-5-5x5x2-2-2x2x|2-2-2x2x5-5x4-4x|5-5-5x5x2-2-2x2x|2-2-2x2x5-5x4-4x|
D|5-5-5x5x2-2-2x2x|3-3-3x3x7-7x5-5x|5-5-5x5x2-2-2x2x|3-3-3x3x7-7x5-5x|
A|3-3-3x3x0-0-0x0x|3-3-3x3x7-7x5-5x|3-3-3x3x0-0-0x0x|3-3-3x3x7-7x5-5x|
E|--------2-2-2x2x|1-1-1x1x5-5x3-3x|--------2-2-2x2x|1-1-1x1x5-5x3-3x|

Rhythm

  C

E|3-------|
B|5-------|
G|5-------|
D|5-------|
A|3-------|
E|--------|

E|-------------------------------------------------------------------------|
B|-------------------------------------------------------------------------|
G|-------------------------------------------------------------------------|
D|-------------------------------------------------------------------------|
A|-------------------------------------------------------------------------|
E|-------------------------------------------------------------------------|

| /  Slide Up
| \  Slide Down
| h  Hammer On
| p  Pull Off
| ~  Vibrato
| +  Harmonic
| x  Mute Note
|(0) Optional Note
============================================================================
Tap to rate this tab
# A B C D E F G H I J K L M N O P Q R S T U V W X Y Z