Song name
# A B C D E F G H I J K L M N O P Q R S T U V W X Y Z

Whitley - Lost In Time tab

Lost In Time - Whitley
Hey evry1 this is my first tab so be nice:) i think its mostly all right..
Standard Tuning: EADGBE
Played Very Fast
   Intro                            Verse
   G                             x2                               x6 
E-|--------------------------------|--------------------------------|
B-|--------------------------------|------3---1---0-----------------|
G-|--0---0---0---0---0---0---0---0-|--0---0---0---0---0---0---0---0-|
D-|--------------------------------|--------------------------------|
A-|--------------------------------|--------------------------------|
E-|3---3---3---3---3---3---3---3---|3---3---3---3---3---3---3---3---|
                                    We're Coming Out...
   C                                G
E-|--------------------------------|--------------------------------|
B-|-------3---1---0---1------------|--------------------------------|
G-|--0---0---0---0---0---0---0---0-|--0---0---0---0---0---0---0---0-|
D-|--------------------------------|--------------------------------|
A-|3---3---3---3---3---3---3---3---|--------------------------------|
E-|--------------------------------|3---3---3---3---3---3---3---3---|
 And suddenly its all about to change                      And all i 
  Chorus
   A                                C
E-|--------------------------------|--------------------------------|
B-|--------------------------------|--------------------------------|
G-|--0---0---0---0---0---0---0---0-|--0---0---0---0---0---0---0---0-|
D-|5---5---5---5---5---5---5---5---|--------------------------------|
A-|--------------------------------|3---3---3---3---3---3---3---3---|
E-|--------------------------------|--------------------------------|
   could have been        And all i would have been      Was lost in 

   G                                                    Repeat Chorus
E-|--------------------------------|--------------------------------|
B-|--------------------------------|--------------------------------|
G-|--0---0---0---0---0---0---0---0-|--0---0---0---0---0---0---0---0-|
D-|--------------------------------|--------------------------------|
A-|--------------------------------|--------------------------------|
E-|3---3---3---3---3---3---3---3---|3---3---3---3---3---3---3---3---|
   time                                                    And all i 

Repeat from Verse

Then chorus played twice again with no lyrics.

 Happy Playing:)
Tap to rate this tab
 
# A B C D E F G H I J K L M N O P Q R S T U V W X Y Z